Log in

One click and you are in

Login with Facebook Login with Google

Why sign up and log in

Guitar Tabs Explorer
Justin Bieber chords for Peaches ukulele

Guitar chords

Tuning: G C E A (G C E A)


Intro:
Fmaj7 Em7 Dm7 x4

Chorus: 0:29

A|----------------------3-3-|----------------------3-3-|
E|---------------0----5-----|---------------0----5-----|
C|-0-2-0-2-0-2-0---0--------|-0-2-0-2-0-2-0---0--------|
G|--------------------------|--------------------------|

A|--------------------------|--------------------------|
E|-3-1-0---------0----------|-3-1-0---------0----------|
C|-------2-2-2-0---2--0-0-0-|-------2-2-2-0---0--0-0-0-|
G|--------------------------|--------------------------|


Verse 1:

A|----------------------|-3-5-7-5-3-----|-----------------------|-5-7-5-3-------|
E|-----0-0----1-0-------|-----------7-5-|---------0-------0-----|---------7-5-3-|
C|-0-2------0-----2-0-2-|---------------|-0-0-0-2---2-0-2---2-0-|---------------|
G|----------------------|---------------|-----------------------|---------------|

A|----------------------|-3-5-7-7--5-3---|-----------------------|
E|-----0-0----1-0-------|--------------7-|-------1-0-------------|
C|-0-2------0-----2-0-2-|----------------|-0-0-2-----2-0--0-2--2-|
G|----------------------|----------------|-----------------------|

Chorus:

A|----------------------3-3-|----------------------3-3-|
E|---------------0----5-----|---------------0----5-----|
C|-2-2-2-2-2-2-0---0--------|-2-2-0-2-0-2-0---0--------|
G|--------------------------|--------------------------|

A|--------------------------|--------------------------|
E|-3-1-0---------0----------|-3-1-0---------0----------|
C|-------2-2-2-0---2--0-0-0-|-------2-2-2-0---0--0-0-0-|
G|--------------------------|--------------------------|


Instrumental:
Fmaj7 Em7 Dm7 Cmaj7 x2


Chorus:

A|----------------------3-3-|----------------------5-7-5-|
E|-0-------------0----5-----|---------------0-1-0--------|
C|---2-0-2-0-2-0---0--------|-2-2-0-2-0-2-0--------------|
G|--------------------------|----------------------------|

A|-------------------------|-------------------------|
E|---------0-------5-------|---------------0---1-0---|
C|-2-2-0-2---2-0-2---0-2-0-|-2-2-0-2-0-2-0---0-----2-|
G|-------------------------|-------------------------|


A|----------------------3-3-|----------------------3-3-|
E|---------------0----5-----|---------------0----5-----|
C|-2-2-0-2-0-2-0---0--------|-2-2-0-2-0-2-0---0--------|
G|--------------------------|--------------------------|

A|--------------------------|--------------------------|
E|-3-1-0---------0----------|-3-1-0---------0----------|
C|-------2-2-2-0---2--0-0-0-|-------2-2-2-0---0--0-0-0-|
G|--------------------------|--------------------------|


Verse 2:

A|----------------------|-3-5-7-5-3-----|-----------------------|-5-7-5-3-------|
E|-----0-0----1-0-------|-----------7-5-|---------0-------0-----|---------7-5-3-|
C|-0-2------0-----2-0-2-|---------------|-0-0-0-2---2-0-2---2-0-|---------------|
G|----------------------|---------------|-----------------------|---------------|

A|------------------------|-3-5-7-5-3-----|-----------------------|
E|-----0-0----1-0---3-0---|-----------7-5-|-------1-0-------------|
C|-0-2------0-----2-----2-|---------------|-0-0-2-----2-0--0-2--2-|
G|------------------------|---------------|-----------------------|


Outro:

A|----------------------3-3-|----------------------3-3-|
E|---------------0----5-----|---------------0----5-----|
C|-2-2-2-2-0-2-0---0--------|-2-2-0-2-0-2-0---0--------|
G|--------------------------|--------------------------|

A|--------------------------|--------------------------|
E|-3-1-0---------0----------|-3-1-0---------0----------|
C|-------2-2-2-0---2--0-0-0-|-------2-2-2-0---0--0-0-0-|
G|--------------------------|--------------------------|

Almost there ...

Sign in to get your own page with links to favourite songs and more. You are just one click away...

Login with Facebook Login with Google