Log in

One click and you are in

Login with Facebook Login with Google

Why sign up and log in

Guitar Tabs Explorer
Justin Bieber bass tabs for Peaches

Bass tabs with lyrics

Tuning: Standard (E A D G)

🎸 Chorus 1:

I got my peaches out in Georgia (Oh, yeah, shit)
G|---------------------------------------------------------------------------------|
D|---------------------------------------------------------------------------------|
A|---8---8-8---7---7-7---5---5-5------3--3-3---5-7-8-------------------------------|
E|------8---8-----7---7-----5---5-------3------------------------------------------|

I took my chick up to the North, yeah (Badass bitch)
G|---------------------------------------------------------------------------------|
D|---------------------------------------------------------------------------------|
A|---8---8-8---7---7-7---5---5-5------3--3-3---5-7-8-------------------------------|
E|------8---8-----7---7-----5---5-------3------------------------------------------|
🎸 Verse 1:
And I see you (Oh), the way I breathe you in (In)
G|------------------------------------------------------------------------------------|
D|---------------------------------------------5h7------------------------------------|
A|---8---8-8---7---7-7---5---5-5------3--3-3-------7-8--------------------------------|
E|------8---8-----7---7-----5---5-------3---------------------------------------------|

And I say, oh, there's nothing like your touch
G|------------------------------------------------------------------------------------|
D|---------------------------------------------5h7------------------------------------|
A|---8---8-8---7---7-7---5---5-5------3--3-3-------7-8--------------------------------|
E|------8---8-----7---7-----5---5-------3---------------------------------------------|


[Chorus 2)
I got my peaches out in Georgia (Oh, yeah, shit)
G|------------------------------------------------------------------------------------|
D|-----------------------------------------------------------5h7----------------------|
A|----8/--8-10-8-----7--7/-8-7-------5/--5-7-5------3/--3---------7-8-----------------|
E|------8-------10----7------8s-------5-----7----------3------------------------------|

I took my chick up to the North, yeah (Badass bitch)
G|------------------------------------------------------------------7h9---------------|
D|--------------------------------------------------------------5h7------10-----------|
A|----8/--8-10-8-----7--7/-8-7-------5/--5-7-5------3/--3-----------------------------|
E|------8-------10----7------8s-------5-----7----------3------------------------------|

🎸 Verse 2:
 You ain't sure yet, but I'm for ya'
G|---------------------------------------------------------------------------------|
D|---------------------------------------------------------------------------------|
A|----8/--8-10-8-----7--7/-8-7-------5/--5-7-5------3/--3----5-7-8-----------------|
E|------8-------10----7------8s-------5-----7----------3---------------------------|

And days we save as souvenirs
G|---------------------------------------------------------------7h9---------------------|
D|-----------------------------------------------------------5h7-----10------------------|
A|----8/--8-10-8-----7--7/-8-7-------5/--5-7--5------3/--3-------------------------------|
E|------8-------10----7-------8s-------5-----7----------3--------------------------------|

I left my girl, I’m in my Yorker
G|--------------------------------------------------------------7h9-------------------|
D|-----------------------------------------------------------5h7-----10---------------|
A|----8/--8-10-8-----7--7/-8-7-------5/--5-7-5------3/--3-----------------------------|
E|------8-------10----7------ 8s-------5----- 7----------3----------------------------|

Remember when I couldn't hold her
G|------------------------------------------------------------------------------------|
D|--------------------------------------------------------------7h9-------------------|
A|----8/--8-10-8-----7--7/-8-7-------5/--5-7-5------3/--3----5h7---10-----------------|
E|------8-------10----7------8s-------5-----7----------3------------------------------|


🎸 Chorus:

I got my peaches out in Georgia (Oh, yeah, shit)
G|---------------------------------------------------------------------------------|
D|---------------------------------------------------------------------------------|
A|----8/--8-10-8-----7--7/-8-7-------5/--5-7-5------3/--3----5-7-8-----------------|
E|------8-------10----7------8s-------5-----7----------3---------------------------|

I took my chick up to the North, yeah (Badass bitch)
G|---------------------------------------------------------------------------------|
D|--------------------------------------------------------------7h9----------------|
A|----8/--8-10-8-----7--7/-8-7-------5/--5-7-5------3/--3----5h7---10--------------|
E|------8-------10----7------8s-------5-----7----------3---------------------------|


GIVEON's part:
I get the feeling, so I'm sure (Sure)
G|---------------------------------------------------------------------------------|
D|---------------------------------------------------------------------------------|
A|----8/--8-10-8-----7--7/-8-7-------5/--5-7-5------3/--3----5-7-8-----------------|
E|------8-------10----7------8s-------5-----7----------3---------------------------|

 Don't be distracted......
G|---------------------------------------------------------------7h9----------------------|
D|-----------------------------------------------------------5h7-----10h12---10-----------|
A|----8/--8-10-8-----7--7/-8-7-------5/--5-7-5------3/--3------------------12-------------|
E|------8-------10----7------8s-------5-----7----------3----------------------------------|


🎸 Chorus:

I got my peaches out in Georgia (Oh, yeah, shit)
G|---------------------------------------------------------------------------------|
D|---------------------------------------------------------------------------------|
A|----8/--8------7--7/----------5/--5-------3/--3x---------------------------------|
E|------8---8------7--------------5-----------3------------------------------------|

I took my chick up to the North, yeah (Badass bitch)
G|---------------------------------------------------------------------------------|
D|--------------------------------------------------------------7h9----------------|
A|----8/--8-10-8-----7--7/-8-7-------5/--5-7-5------3/--3----5h7---10--------------|
E|------8-------10----7------8s-------5-----7----------3---------------------------|


I got my peaches out in Georgia (Oh, yeah, shit)
G|---------------------------------------------------------------------------------|
D|---------------------------------------------------------------------------------|
A|----8/--8-10-8-----7--7/-8-7-------5/--5-7-5------3/--3----5-7-8-----------------|
E|------8-------10----7------8s-------5-----7----------3---------------------------|

I took my chick up to the North, yeah (Badass bitch)
G|---------------------------------------------------------------------------------|
D|--------------------------------------------------------------7h9----------------|
A|----8/--8-10-8-----7--7/-8-7-------5/--5-7-5------3/--3----5h7---10--------------|
E|------8-------10----7------8s-------5-----7----------3---------------------------|

I got my peaches out in Georgia (Oh, yeah, shit)
G|---------------------------------------------------------------------------------|
D|---------------------------------------------------------------------------------|
A|----8/--8-10-8-----7--7/-8-7-------5/--5-7-5------3/--3----5-7-8-----------------|
E|------8-------10----7------8s-------5-----7----------3---------------------------|

I took my chick up to the North, yeah (Badass bitch)
G|---------------------------------------------------------------------------------|
D|--------------------------------------------------------------7h9----------------|
A|----8/--8-10-8-----7--7/-8-7-------5/--5-7-5------3/--3----5h7---10--------------|
E|------8-------10----7------8s-------5-----7----------3---------------------------|

🎸 Outro:

I got my peaches out in Georgia (Oh, yeah, shit)
G|---------------------------------------------------------------------------------|
D|---------------------------------------------------------------------------------|
A|----8/--8-10-8-----7--7/-8-7-------5/--5-7-5------3/--3----5-7-8-----------------|
E|------8-------10----7------8s-------5-----7----------3---------------------------|

I took my chick up to the North, yeah (Badass bitch)
G|---------------------------------------------------------------------------------|
D|--------------------------------------------------------------7h9----------------|
A|----8/--8-10-8-----7--7/-8-7-------5/--5-7-5------3/--3----5h7---10--------------|
E|------8-------10----7------8s-------5-----7----------3---------------------------|


************************************

| h Hammer-on
| / Slide up
| x Dead note

| s slide down

************************************

Almost there ...

Sign in to get your own page with links to favourite songs and more. You are just one click away...

Login with Facebook Login with Google