Log in

One click and you are in

Login with Facebook Login with Google

Why sign up and log in

Guitar Tabs Explorer
Justin Bieber guitar tabs for Love yourself

Guitar tabs

Tabbed by:Jeremy Yang
E-mail:Jeremy.Yang@hotmail.ca


Order of Song - verse/1st half of pre-chorus and the bridge are the same
Intro ( If you want)

Verse
1st half Pre-chorus
2nd half pre-chorus

Chorus
(repeat ^ and then continue down)

Instrumental is the same as Chorus x2 (If you want)

Bridge

Chorus x2


Intro/ First half of Pre-Chorus / Bridge <-- Repeat for all of these
-------------------------------
   A chord diagramE MajorE             A chord diagramBB           A chord diagramC# minorC#m         A chord diagramF# minorF#m             A chord diagramE MajorE           A chord diagramBB
e|-----------x-----------x-----------x---------------x-----------x-----------x|
B|-7h9---9---x---7---7---x---5---5---x---9h10---10---x---9---9---x---7---7---x|
G|-9-----9---x---8---8---x---6---6---x---11-----11---x---9---9---x---8---8---x|
D|-9---------x---9-------x---6-------x---11----------x---9-------x---9-------x|
A|-7---------x---9-------x---4-------x---9-----------x---7-------x---9-------x|
E|-----------x-----------x-----------x---------------x-----------x-----------x|


Second Half of Pre-Chorus
-------------------------------
   A chord diagramC# minorC#m         A chord diagramA majorA       A chord diagramE MajorE           A chord diagramE MajorE
e|---------x-------x-----------x----------------------------------------------|
B|---------x-------x-----------x----------------------------------------------|
G|-6---6---x---2---x---1---1---x---1------------------------------------------|
D|-6---6---x---2---x---2---2---x---2------------------------------------------|
A|-4-------x---0---x---2-------x---2------------------------------------------|
E|---------x-------x---0-------x---0------------------------------------------|


    A chord diagramC# minorC#m         A chord diagramA majorA       A chord diagramE MajorE           A chord diagramE MajorE
e|---------x-------x-----------x----------------------------------------------|
B|---------x-------x-----------x----------------------------------------------|
G|-6---6---x---2---x---1---1---x---1------------------------------------------|
D|-6---6---x---2---x---2---2---x---2------------------------------------------|
A|-4-------x---0---x---2-------x---2------------------------------------------|
E|---------x-------x---0-------x---0------------------------------------------|


   A chord diagramC# minorC#m         A chord diagramA majorA       A chord diagramE MajorE           A chord diagramBB
e|---------x-------x-----------x----------------------------------------------|
B|---------x-------x-----------x----------------------------------------------|
G|-6---6---x---2---x---1---1---x---4------------------------------------------|
D|-6---6---x---2---x---2---2---x---4------------------------------------------|
A|-4-------x---0---x---2-------x---2------------------------------------------|
E|---------x-------x---0-------x----------------------------------------------|


   A chord diagramC# minorC#m         A chord diagramA majorA       A chord diagramE MajorE           A chord diagramE MajorE Strum x5
e|---------x-------x-----------x----------------------------------------------|
B|---------x-------x-----------x----------------------------------------------|
G|-6---6---x---2---x---1---1---x---1------------------------------------------|
D|-6---6---x---2---x---2---2---x---2------------------------------------------|
A|-4-------x---0---x---2-------x---2------------------------------------------|
E|---------x-------x---0-------x---0------------------------------------------|



Chorus

   A chord diagramE MajorE       A chord diagramBB      A chord diagramC# minorC#m      A chord diagramA majorA       A chord diagramE MajorE        A chord diagramBB               A chord diagramE MajorE
e|-----x-------x-------x-------x-------x------------------------x--------------|
B|-----x---4---x---5---x-------x-------x------------------------x--------------|
G|-1---x---4---x---6---x---6---x---1---x----4---(4)---(2)---1---x--------------|
D|-2---x---4---x---6---x---7---x---2---x----4---(4)---(4)---2---x--------------|
A|-2---x---2---x---4---x---7---x---2---x----2---(2)---(2)---2---x--------------|
E|-0---x-------x-------x---5---x---0---x--------------------0---x--------------|
                                                ^(Randomly played out through the song)


| /   slide up
|    slide down
| h   hammer-on
| p   pull-off
| ~   vibrato
| +   harmonic
| x   Mute note
| b   Bend
| pb  Pre-bend
| br  Bend release
| pbr Pre-bend release
| brb Bend release bend

Other versions of Love Yourself

Love yourselfChords
Love yourself (Ver. 2)Chords
Love yourself (Ver. 3)Chords
Love yourself (Ver. 4)Chords
Love yourself acousticChords
Love yourself (Ver. 2)Tabs
Love yourself (Ver. 3)Tabs
Love yourself (Ver. 4)Tabs
Love yourself acousticTabs
Love yourself introTabs

↓ Add and view comments below ↓

What do you think about this song and these tabs?

Add your comments, questions, rant or a thumbs up below.

Almost there ...

Sign in to get your own page with links to favourite songs and more. You are just one click away...

Login with Facebook Login with Google