Log in

One click and you are in

Login with Facebook Login with Google

Why sign up and log in

Guitar Tabs Explorer
Justin Bieber guitar tabs for Love yourself (Ver. 4)

Guitar tabs

Tuning: Standard (E A D G B E)

Difficulty: Intermediate

-----------------------------------------------------------------
LOVE YOURSELF - Justin Bieber
-----------------------------------------------------------------
Tabbed by: gee_whizz

Tuning: Standard
Guitar by Ed Sheeran
Verse:
    A chord diagramE MajorE            A chord diagramD#mD#m           A chord diagramC# minorC#m                      A chord diagramF# minorF#m            A chord diagramE MajorE             A chord diagramD#mD#m
e|----------x------------x--|----------x-------------|------------x------------x--|----------x---------------|
B|--9----9--x----7----7--x--|--5----5--x-------------|--10----10--x----9----9--x--|--7----7--x---------------|
G|--9----9--x----8----8--x--|--6----6--x-------------|--11----11--x----9----9--x--|--7----7--x---------------|
D|----------x------------x--|----------x-------------|------------x------------x--|----------x---------------|
A|--7-------x----6-------x--|--4-------x-------------|--9-----9---x----7-------x--|--6-------x---------------|
E|----------x------------x--|----------x-------------|------------x------------x--|----------x---------------|


Verse 1: For all the times that you rained on my parade...


Pre-Chorus:

    A chord diagramC#C#           A chord diagramA majorA              A chord diagramE MajorE                       A chord diagramC#C#           A chord diagramA majorA             A chord diagramE MajorE
e|----------x---------------|----------x-------------|----------x---------------|----------x-----------------|
B|----------x---------------|----------x-------------|----------x---------------|----------x-----------------|
G|--6----6--x----2----------|-------1--x-------------|--6----6--x----2----------|--1----1--x----1------------|
D|--6----6--x----2----------|-------2--x-------------|--6----6--x----2----------|--1----1--x----1------------|
A|--4-------x----0----------|----------x-------------|--4-------x----0----------|----------x-----------------|
E|----------x---------------|--0-------x----0--------|----------x---------------|--0-------x----0------------|

My mama don't like you and she likes everyone...

    A chord diagramC#C#           A chord diagramA majorA             A chord diagramE MajorE            A chord diagramBB           A chord diagramC#C#           A chord diagramA majorA               A chord diagramBB
e|----------x---------------|----------x-------------|----------x---------------|----2----2----2----2----2---|
B|----------x---------------|----------x-------------|----------x---------------|----2----2----2----2----2---|
G|--6----6--x----2----------|--1----1--x----4--------|--6----6--x----2----------|----4----4----4----4----4---|
D|--6----6--x----2----------|--2----2--x----4--------|--6----6--x----2----------|----4----4----4----4----4---|
A|--4-------x----0----------|----------x----2--------|--4-------x----0----------|----2----2----2----2----2---|
E|----------x---------------|--0-------x-------------|----------x---------------|----2----2----2----2----2---|


Chorus:

    A chord diagramE MajorE           A chord diagramBB             A chord diagramC#C#        A chord diagramA majorA               A chord diagramE MajorE         A chord diagramA majorA  A chord diagramE MajorE
e|-------x-----------x-----|-------x---------x-------|-------x----------x-------|
B|-------x-----------x-----|-------x---------x-------|-------x----------x-------|
G|--1----x------4----x-----|--6----x----2----x-------|--1----x----2--1--x-------|
D|--2----x------4----x-----|--6----x----2----x-------|--2----x----2--2--x-------|
A|-------x------2----x-----|--4----x----0----x-------|-------x----0-----x-------|
E|--0----x-----------x-----|-------x---------x-------|--0----x-------1--x-------|

'Cause if you like the way you look that much...


Verse:

    A chord diagramE MajorE            A chord diagramD#mD#m           A chord diagramC# minorC#m                      A chord diagramF# minorF#m            A chord diagramE MajorE             A chord diagramD#mD#m
e|----------x------------x--|----------x-------------|------------x------------x--|----------x---------------|
B|--9----9--x----7----7--x--|--5----5--x-------------|--10----10--x----9----9--x--|--7----7--x---------------|
G|--9----9--x----8----8--x--|--6----6--x-------------|--11----11--x----9----9--x--|--7----7--x---------------|
D|----------x------------x--|----------x-------------|------------x------------x--|----------x---------------|
A|--7-------x----6-------x--|--4-------x-------------|--9-----9---x----7-------x--|--6-------x---------------|
E|----------x------------x--|----------x-------------|------------x------------x--|----------x---------------|


Verse 2: But when you told me that you hated my friends...


Pre-Chorus:

    A chord diagramC#C#           A chord diagramA majorA              A chord diagramE MajorE                       A chord diagramC#C#           A chord diagramA majorA             A chord diagramE MajorE
e|----------x---------------|----------x-------------|----------x---------------|----------x-----------------|
B|----------x---------------|----------x-------------|----------x---------------|----------x-----------------|
G|--6----6--x----2----------|-------1--x-------------|--6----6--x----2----------|--1----1--x----1------------|
D|--6----6--x----2----------|-------2--x-------------|--6----6--x----2----------|--1----1--x----1------------|
A|--4-------x----0----------|----------x-------------|--4-------x----0----------|----------x-----------------|
E|----------x---------------|--0-------x----0--------|----------x---------------|--0-------x----0------------|

My mama don't like you and she likes everyone...

    A chord diagramC#C#           A chord diagramA majorA             A chord diagramE MajorE            A chord diagramBB           A chord diagramC#C#           A chord diagramA majorA               A chord diagramBB
e|----------x---------------|----------x-------------|----------x---------------|----2----2----2----2----2---|
B|----------x---------------|----------x-------------|----------x---------------|----2----2----2----2----2---|
G|--6----6--x----2----------|--1----1--x----4--------|--6----6--x----2----------|----4----4----4----4----4---|
D|--6----6--x----2----------|--2----2--x----4--------|--6----6--x----2----------|----4----4----4----4----4---|
A|--4-------x----0----------|----------x----2--------|--4-------x----0----------|----2----2----2----2----2---|
E|----------x---------------|--0-------x-------------|----------x---------------|----2----2----2----2----2---|


Chorus: x 3

    A chord diagramE MajorE           A chord diagramBB             A chord diagramC#C#        A chord diagramA majorA               A chord diagramE MajorE         A chord diagramA majorA  A chord diagramE MajorE
e|-------x-----------x-----|-------x---------x-------|-------x----------x-------|
B|-------x-----------x-----|-------x---------x-------|-------x----------x-------|
G|--1----x------4----x-----|--6----x----2----x-------|--1----x----2--1--x-------|
D|--2----x------4----x-----|--6----x----2----x-------|--2----x----2--2--x-------|
A|-------x------2----x-----|--4----x----0----x-------|-------x----0-----x-------|
E|--0----x-----------x-----|-------x---------x-------|--0----x-------1--x-------|

'Cause if you like the way you look that much...


| /  slide up
| \  slide down
| h  hammer-on
| p  pull-off
| ~  vibrato
| +  harmonic
| x  Mute note

Other versions of Love Yourself

Love yourselfChords
Love yourself (Ver. 2)Chords
Love yourself (Ver. 3)Chords
Love yourself (Ver. 4)Chords
Love yourself acousticChords
Love yourselfTabs
Love yourself (Ver. 2)Tabs
Love yourself (Ver. 3)Tabs
Love yourself acousticTabs
Love yourself introTabs

Almost there ...

Sign in to get your own page with links to favourite songs and more. You are just one click away...

Login with Facebook Login with Google