Log in

One click and you are in

Login with Facebook Login with Google

Why sign up and log in

Guitar Tabs Explorer
Justin Bieber guitar tabs for Love yourself (Ver. 3)

Guitar tabs

[Intro]

e|---------------------------------------------------------------------------|
B|-9-9---7-7---5-5---10-10---9-9---7-7---------------------------------------|
G|-----x-----x-----x-------x-----x-----x---------repeat-a-lot----------------|
D|-----x-----x-----x-------x-----x-----x-------------------------------------|
A|-7-7---6-6---4-4---9--9----7-7---6-6---------------------------------------|
E|---------------------------------------------------------------------------|


[Bridge]

e|---------------------|------------------------------------------------------|
B|---------------------|------------------------------------------------------|
G|-6-6-x-2-x-1-1-x-1-x-|----6-6-x-2-x-1-1-x-4-x-6-6-x-2-x-4-4-4-4-4-x---------|
D|-6-6-x-2-x-2-2-x-2-x-|x2--6-6-x-2-x-2-2-x-4-x-6-6-x-2-x-4-4-4-4-4-x---------|
A|-4-4-x-0-x-2-2-x-2-x-|----4-4-x-0-x-2-2-x-2-x-4-4-x-0-x-2-2-2-2-2-x---------|
E|-----------0-0---0---|--------------0-0-------------------------------------|


[Chorus]

e|---------------------------------------------------------------------------|
B|---------------------------------------------------------------------------|
G|---x-4-x-6-x-2-x-1-x-2-x-1-x-----------------------------------------------|
D|-2-x-4-x-6-x-2-x-2-x-2-x-2-x--------repeat-a-lot---------------------------|
A|-2-x-2-x-4-x-0-x-2-x-0-x-2-x-----------------------------------------------|
E|-0---------------0-------0-------------------------------------------------|

****************************

x   Dead note

Other versions of Love Yourself

Love yourselfChords
Love yourself (Ver. 2)Chords
Love yourself (Ver. 3)Chords
Love yourself (Ver. 4)Chords
Love yourself acousticChords
Love yourselfTabs
Love yourself (Ver. 2)Tabs
Love yourself (Ver. 4)Tabs
Love yourself acousticTabs
Love yourself introTabs

Almost there ...

Sign in to get your own page with links to favourite songs and more. You are just one click away...

Login with Facebook Login with Google