Log in

One click and you are in

Login with Facebook Login with Google

Why sign up and log in

Guitar Tabs Explorer
Justin Bieber guitar tabs for Love yourself (Ver. 2)

Guitar tabs with lyrics

-------------------------------------------------------------------------------
                             Love Yourself - Justin Bieber
-------------------------------------------------------------------------------


Tuning: Standard
Capo on 4th fret
[Verse 1]

e|-----------------------------------------------1--1------------------------|
B|---3h5--5------3--3------1--1---------------------------5--5-----3--3------|
G|---------------------------------------------------------------------------|  x4
D|-----------------------------------------------0---------------------------|
A|---3-----------2---------0------------------------------3--------2---------|
E|---------------------------------------------------------------------------|


All the times that you rain on my parade
And all the clubs you get in using my name
You think you broke my heart, oh girl for goodness sake
You think I'm crying on my own, well I ain't


[Pre-Chorus]

And I didn't wanna write a song cause I didn't want anyone thinking I still care
Or don't but, you still hit my phone up
And baby I be movin' on and I think you should be somethin'
I don't wanna hold back, maybe you should know that

[Pre-Chorus continued]
              A chord diagramA minorAm   A chord diagramFF                      A chord diagramC majorC
My mama don't like you and she likes everyone
            A chord diagramA minorAm      A chord diagramFF                   A chord diagramC majorC
And I never like to admit that I was wrong
                 A chord diagramA minorAm          A chord diagramFF               A chord diagramC majorC                A chord diagramG MajorG
And I've been so caught up in my job, didn't see what's going on
          A chord diagramA minorAm  A chord diagramFF            A chord diagramG MajorG
And now I know, I'm better sleeping on my own



[Chorus]
             A chord diagramC majorC          A chord diagramG MajorG     A chord diagramA minorAm           A chord diagramFF
Cause if you like the way you look that much
        A chord diagramC majorC                     A chord diagramG MajorG        A chord diagramC majorC
Oh baby you should go and love yourself
           A chord diagramC majorC             A chord diagramG MajorG      A chord diagramA minorAm        A chord diagramFF
And if you think that I'm still holdin' on to somethin'
A chord diagramC majorC                 A chord diagramG MajorG        A chord diagramC majorC
You should go and love yourself


[Verse 2]

e|-----------------------------------------------1--1------------------------|
B|---3h5--5------3--3------1--1---------------------------5--5-----3--3------|
G|---------------------------------------------------------------------------|  x4
D|-----------------------------------------------0---------------------------|
A|---3-----------2---------0------------------------------3--------2---------|
E|---------------------------------------------------------------------------|


And when you told me that you hated my friends
The only problem was with you and not them
And every time you told me my opinion was wrong
And tried to make me forget where I came from


[Pre-Chorus]

And I didn't wanna write a song cause I didn't want anyone thinking I still care
Or don't but, you still hit my phone up
And baby I be movin' on and I think you should be somethin'
I don't wanna hold back, maybe you should know that


[Pre-Chorus continued]

              A chord diagramA minorAm   A chord diagramFF                      A chord diagramC majorC
My mama don't like you and she likes everyone
            A chord diagramA minorAm      A chord diagramFF                   A chord diagramC majorC
And I never like to admit that I was wrong
                 A chord diagramA minorAm          A chord diagramFF               A chord diagramC majorC                A chord diagramG MajorG
And I've been so caught up in my job, didn't see what's going on
          A chord diagramA minorAm  A chord diagramFF            A chord diagramG MajorG
And now I know, I'm better sleeping on my own


[Chorus]
             A chord diagramC majorC          A chord diagramG MajorG     A chord diagramA minorAm           A chord diagramFF
Cause if you like the way you look that much
        A chord diagramC majorC                     A chord diagramG MajorG        A chord diagramC majorC
Oh baby you should go and love yourself
           A chord diagramC majorC             A chord diagramG MajorG      A chord diagramA minorAm        A chord diagramFF
And if you think that I'm still holdin' on to somethin'
A chord diagramC majorC                 A chord diagramG MajorG        A chord diagramC majorC
You should go and love yourself


[Instrumental]

e|---3--0--3--0---------------------3--0--3--0-------------------------------|
B|----------------3--1-1---------------------------------3--1-5--------------|
G|---------------------------------------------------------------------------|
D|---------------------------------------------------------------------------|
A|---------------------------------------------------------------------------|
E|---------------------------------------------------------------------------|
                                                                                 x2
e|---3--0--3--0--------------------------------------------------------------|
B|----------------3--1---------6--5--3--1-1----------------------------------|
G|---------------------------------------------------------------------------|
D|---------------------------------------------------------------------------|
A|---------------------------------------------------------------------------|
E|---------------------------------------------------------------------------|


[Bridge]

e|-----------------------------------------------1--1------------------------|
B|---3h5--5------3--3------1--1---------------------------5--5-----3--3------|
G|---------------------------------------------------------------------------|   x2
D|-----------------------------------------------0---------------------------|
A|---3-----------2---------0------------------------------3--------2---------|
E|---------------------------------------------------------------------------|


For all the times you made me feel small
I fell in love, now I fear nothin' at all
I never felt so low when I was vulnerable
Was I a fool to let you break down my walls?


[Chorus]
             A chord diagramC majorC           A chord diagramG MajorG       A chord diagramA minorAm        A chord diagramFF
Cause if you like the way you look that much
        A chord diagramC majorC                      A chord diagramG MajorG        A chord diagramC majorC
Oh baby you should go and love yourself
           A chord diagramC majorC          A chord diagramG MajorG         A chord diagramA minorAm        A chord diagramFF
And if you think that I'm still holdin' on to somethin'
A chord diagramC majorC                 A chord diagramG MajorG        A chord diagramC majorC
You should go and love yourself
             A chord diagramC majorC           A chord diagramG MajorG      A chord diagramA minorAm        A chord diagramFF
Cause if you like the way you look that much
        A chord diagramC majorC                     A chord diagramG MajorG        A chord diagramC majorC
Oh baby you should go and love yourself
           A chord diagramC majorC             A chord diagramG MajorG         A chord diagramA minorAm      A chord diagramFF
And if you think that I'm still holdin' on to somethin'
A chord diagramC majorC                 A chord diagramG MajorG        A chord diagramC majorC
You should go and love yourself



************************************

| /   slide up
| \   slide down
| h   hammer-on
| p   pull-off
| ~   vibrato
| +   harmonic
| x   Mute note
| b   Bend
| pb  Pre-bend
| br  Bend release
| pbr Pre-bend release
| brb Bend release bend

Other versions of Love Yourself

Love yourselfChords
Love yourself (Ver. 2)Chords
Love yourself (Ver. 3)Chords
Love yourself (Ver. 4)Chords
Love yourself acousticChords
Love yourselfTabs
Love yourself (Ver. 3)Tabs
Love yourself (Ver. 4)Tabs
Love yourself acousticTabs
Love yourself introTabs

↓ Add and view comments below ↓

What do you think about this song and these tabs?

Add your comments, questions, rant or a thumbs up below.

Almost there ...

Sign in to get your own page with links to favourite songs and more. You are just one click away...

Login with Facebook Login with Google