Log in

One click and you are in

Login with Facebook Login with Google

Why sign up and log in

Guitar Tabs Explorer
Justin Bieber bass tabs for Hold on

Bass tabs

Tuning: Standard (E A D G)

Tempo: 140BPM 4/4 measures

♫ Intro:
 4 Measures rest
G|-----------------|
D|-----------------|
A|-----------------|
E|-----------------|
Verse 1:
 8 Measures rest
G|-----------------|
D|-----------------|
A|-----------------|
E|-----------------|

  1 & 2 & 3 & 4 &  1 & 2 & 3 & 4 &  1 & 2 & 3 & 4 &  1 & 2 & 3 & 4 &
G|-----------------|-----------------|-----------------|-----------------|
D|-----------------|-----------------|-----------------|-----------------|
A|-4---------------|-2---------------|-----------------|-2---------------|
E|-----------------|-----------------|-5---------------|-----------------|

  1 & 2 & 3 & 4 &  1 & 2 & 3 & 4 &  1 & 2 & 3 & 4 &  1 & 2 & 3 & 4 &
G|-----------------|-----------------|-----------------|-----------------|
D|-----------------|-----------------|-----------------|-----------------|
A|-4---------------|-6-------7-------|-----------------|-----------------|
E|-----------------|-----------------|-5---------------|-----------------|


♫ Chorus:
  1 & 2 & 3 & 4 &  1 & 2 & 3 & 4 &  1 & 2 & 3 & 4 &  1 & 2 & 3 & 4 &
G|-----------------|-----------------|-----------------|-----------------|
D|-----------2-2-2-|-----------2-2-2-|-----------2-2-2-|-----------2-1---|
A|-4----4----------|-2----2----------|-----------------|-2----2--------2-|
E|-----------------|-----------------|-5----5----------|-----------------|

  1 & 2 & 3 & 4 &  1 & 2 & 3 & 4 &  1 & 2 & 3 & 4 &  1 & 2 & 3 & 4 &
G|-----------------|-----------------|-----------------|-----------------|
D|-----------2-2-2-|-----------2-2-2-|-----------2-2-2-|-----------2-1---|
A|-4----4----------|-2----2----------|-----------------|---------------2-|
E|-----------------|-----------------|-5----5----------|-0----0----------|

  1 & 2 & 3 & 4 &  1 & 2 & 3 & 4 &  1 & 2 & 3 & 4 &  1 & 2 & 3 & 4 &
G|-----------------|-----------------|-----------------|-----------------|
D|-----------2-2-2-|-----------2-2-2-|-----------2-2-2-|-----------2-1---|
A|-4----4----------|-2----2----------|-----------------|-2----2--------2-|
E|-----------------|-----------------|-5----5----------|-----------------|

  1 & 2 & 3 & 4 &  1 & 2 & 3 & 4 &  1 & 2 & 3 & 4 &  1 & 2 & 3 & 4 &
G|-----------------|-----------------|-----------------|-----------------|
D|-----------2-2-2-|-----------2-2-2-|-----------2-2-2-|-----------2-1---|
A|-4----4----------|-2----2----------|-----------------|---------------2-|
E|-----------------|-----------------|-5----5----------|-0----0----------|

Verse 2:
  1 & 2 & 3 & 4 & 7 measures rest
G|-----------------|----------------|
D|-----------------|----------------|
A|-4---------------|----------------|
E|-----------------|----------------|

  1 & 2 & 3 & 4 &  1 & 2 & 3 & 4 &  1 & 2 & 3 & 4 &  1 & 2 & 3 & 4 &
G|-----------------|-----------------|-----------------|-----------------|
D|-----------------|-----------------|-----------------|-----------------|
A|-4---------------|-2---------------|-----------------|-2---------------|
E|-----------------|-----------------|-5---------------|-----------------|

  1 & 2 & 3 & 4 &  1 & 2 & 3 & 4 &  1 & 2 & 3 & 4 &  1 & 2 & 3 & 4 &
G|-----------------|-----------------|-----------------|-----------------|
D|-----------------|-----------------|-----------------|-----------------|
A|-4---------------|-2---------------|-----------------|-----------------|
E|-----------------|-----------------|-5---------------|-0---------------|


♫ Chorus:
  1 & 2 & 3 & 4 &  1 & 2 & 3 & 4 &  1 & 2 & 3 & 4 &  1 & 2 & 3 & 4 &
G|-----------------|-----------------|-----------------|-----------------|
D|-----------2-2-2-|-----------2-2-2-|-----------2-2-2-|-----------2-1---|
A|-4----4----------|-2----2----------|-----------------|-2----2--------2-|
E|-----------------|-----------------|-5----5----------|-----------------|

  1 & 2 & 3 & 4 &  1 & 2 & 3 & 4 &  1 & 2 & 3 & 4 &  1 & 2 & 3 & 4 &
G|-----------------|-----------------|-----------------|-----------------|
D|-----------2-2-2-|-----------2-2-2-|-----------2-2-2-|-----------2-1---|
A|-4----4----------|-2----2----------|-----------------|---------------2-|
E|-----------------|-----------------|-5----5----------|-0----0----------|

  1 & 2 & 3 & 4 &  1 & 2 & 3 & 4 &  1 & 2 & 3 & 4 &  1 & 2 & 3 & 4 &
G|-----------------|-----------------|-----------------|-----------------|
D|-----------2-2-2-|-----------2-2-2-|-----------2-2-2-|-----------2-1---|
A|-4----4----------|-2----2----------|-----------------|-2----2--------2-|
E|-----------------|-----------------|-5----5----------|-----------------|

  1 & 2 & 3 & 4 &  1 & 2 & 3 & 4 &  1 & 2 & 3 & 4 &  1 & 2 & 3 & 4 &
G|-----------------|-----------------|-----------------|-----------------|
D|-----------2-2-2-|-----------2-2-2-|-----------2-2-2-|-----------2-1---|
A|-4----4----------|-2----2----------|-----------------|---------------2-|
E|-----------------|-----------------|-5----5----------|-0----0----------|


♫ Bridge:

  1 & 2 & 3 & 4 &  1 & 2 & 3 & 4 &  1 & 2 & 3 & 4 &  1 & 2 & 3 & 4 &
G|-----------------|-----------------|-----------------|-----------------|
D|-----------------|-----------------|-----------------|-----------------|
A|-4---------------|-2---------------|-----------------|-2---------------|
E|-----------------|-----------------|-5---------------|-----------------|

  1 & 2 & 3 & 4 &  1 & 2 & 3 & 4 &  1 & 2 & 3 & 4 &  1 & 2 & 3 & 4 &
G|-----------------|-----------------|-----------------|-----------------|
D|-----------------|-----------------|-----------------|-----------------|
A|-4---------------|-2---------------|-----------------|-----------------|
E|-----------------|-----------------|-5---------------|-----------------|


♫ Chorus:
 8 Measures rest
G|-----------------|
D|-----------------|
A|-----------------|
E|-----------------|

  1 & 2 & 3 & 4 &  1 & 2 & 3 & 4 &  1 & 2 & 3 & 4 &  1 & 2 & 3 & 4 &
G|-----------------|-----------------|-----------------|-----------------|
D|-----------2-2-2-|-----------2-2-2-|-----------2-2-2-|-----------2-1---|
A|-4----4----------|-2----2----------|-----------------|-2----2--------2-|
E|-----------------|-----------------|-5----5----------|-----------------|

  1 & 2 & 3 & 4 &  1 & 2 & 3 & 4 &  1 & 2 & 3 & 4 &  1 & 2 & 3 & 4 &
G|-----------------|-----------------|-----------------|-----------------|
D|-----------2-2-2-|-----------2-2-2-|-----------2-2-2-|-----------2-1---|
A|-4----4----------|-2----2----------|-----------------|---------------2-|
E|-----------------|-----------------|-5----5----------|-0----0----------|


♫ Outro:
  1 & 2 & 3 & 4 &  1 & 2 & 3 & 4 &  1 & 2 & 3 & 4 &  1 & 2 & 3 & 4 &
G|-----------------|-----------------|-----------------|-----------------|
D|-----------2-2-2-|-----------2-2-2-|-----------2-2-2-|-----------2-1---|
A|-4----4----------|-2----2----------|-----------------|-2----2--------2-|
E|-----------------|-----------------|-5----5----------|-----------------|

  1 & 2 & 3 & 4 &  1 & 2 & 3 & 4 &  1 & 2 & 3 & 4 &  1 & 2 & 3 & 4 &
G|-----------------|-----------------|-----------------|-----------------|
D|-----------2-2-2-|-----------2-2-2-|-----------2-2-2-|-----------------|
A|-4----4----------|-2----2----------|-----------------|-----------------|
E|-----------------|-----------------|-5----5----------|-----------------|

Almost there ...

Sign in to get your own page with links to favourite songs and more. You are just one click away...

Login with Facebook Login with Google