Log in

One click and you are in

Login with Facebook Login with Google

Why sign up and log in

Guitar Tabs Explorer
Justin Bieber bass tabs for Company

Bass tabs

-------------------------------------------------------------------------------
               Company - Justin Bieber
-------------------------------------------------------------------------------


Intro/breakdown:

G|---------------------------------------------------------------------------|
D|---------------------------------------------------------------------------|
A|----3-------0--------------------------------------------------------------|
E|--------------------3-------0----------------------------------------------|
(Let notes ring out)

Main Bassline (Repeats throughout song):
G|---------------------------------------------------------------------------|
D|----------------2---2-2----------------------------------------------------|
A|----3---3---3h5---------------------2---2-2--------------------------------|
E|------------------------3---3---3h5----------------------------------------|


Please comment any corrections!


| / slide up
| \ slide down
| h hammer-on
| p pull-off
| ~ vibrato
| + harmonic
| x Mute note

Almost there ...

Sign in to get your own page with links to favourite songs and more. You are just one click away...

Login with Facebook Login with Google