Log in

One click and you are in

Login with Facebook Login with Google

Why sign up and log in

Guitar Tabs Explorer
Justin Bieber guitar tabs for Cold water

Guitar tabs

Main Riff:
   A chord diagramF# minorF#m         A chord diagramA majorA               A chord diagramC# minorC#m         A chord diagramD MajorD
e|------------------------9--|--------------------------------|
B|---------8-----------------|--------------------------------|
G|------11--------------9----|---------9---------------11-----|
D|---11--------------11------|------11--------------12----12--|
A|-9-----------12------------|---11--------------12-----------|
E|---------------------------|-9-----------10-----------------|


-------------------------------
    WITH CAPO ON 9TH FRET
-------------------------------


Main Riff:
   A chord diagramA minorAm          A chord diagramC majorC               A chord diagramE minorEm          A chord diagramFF
e|------------------------0--|--------------------------------|
B|-------1-------------------|--------------------------------|
G|-----2--------------0------|-------0-------------2----------|
D|---2--------------2--------|-----2-------------3---3--------|
A|-0-----------3-------------|---2-------------3--------------|

Other versions of Cold Water

Cold water (Ver. 2)Chords
Cold water (Ver. 3)Chords
Cold water acousticChords
ColdwaterChords
Cold water (Ver. 2)Tabs

Almost there ...

Sign in to get your own page with links to favourite songs and more. You are just one click away...

Login with Facebook Login with Google