Log in

One click and you are in

Login with Facebook Login with Google

Why sign up and log in

Guitar Tabs Explorer
Justin Bieber bass tabs for Beauty and a beat

Bass tabs

Beauty and a Beat Bass TabĀ®

x5
G|----------10----------------------------------------------------12-14-16-17-------|
D|------------------------------12-----10-----------10------------------------------|
A|--8(x5)------8---------------------------12(x8)-----10(x4)------------------------|
E|------------------8-10(x5)-----10-------------------------------------------------|

G|-----------------------------------------|
D|-----------------------------------------|
A|--8(x4)-10(x4)-12(x4)-15(x4)-------------|
E|-----------------------------------------|

G|--------------------------------------|
D|--------------------------------------|
A|--8(x4)-10(x4)-5(x4)-3(x4)------------|
E|--------------------------------------|

x2
G|---------------------------------------------9-10-------|
D|------------------------------------10-12---------------|
A|--------------------------------------------------------|
E|--1(x4)-3(x4)\7-5(x4)-8(x2)-----------------------------|

x4
G|----------10----------------------------------------------------12-14-16-17-------|
D|------------------------------12-----10-----------10------------------------------|
A|--8(x5)------8---------------------------12(x8)-----10(x4)------------------------|
E|------------------8-10(x5)-----10-------------------------------------------------|

G|-----------------------------------------|
D|-----------------------------------------|
A|--8(x4)-10(x4)-12(x4)-15(x4)-------------|
E|-----------------------------------------|

G|--------------------------------------|
D|--------------------------------------|
A|--8(x4)-10(x4)-5(x4)-3(x4)------------|
E|--------------------------------------|

x2
G|---------------------------------------------9-10-------|
D|------------------------------------10-12---------------|
A|--------------------------------------------------------|
E|--1(x4)-3(x4)\7-5(x4)-8(x2)-----------------------------|

G|---------10--------------------------------------------------------------------|
D|------------------------------14-----------------------------------------------|
A|--8(x5)-----8-------------------------10-12(x8)\14/12(x4)-10(x4)---------------|
E|-----------------8-12(x5)-------12---------------------------------------------|

G|---------10------------------------------------------------------|
D|------------------------------14---------------------------------|
A|--8(x5)-----8-------------------------10-12(x8)\14/12/-----------|
E|-----------------8-12(x5)-------12-------------------------------|

G|---------10--------------------------------------------------------------------|
D|------------------------------14-----------------------------------------------|
A|--8(x5)-----8-------------------------10-12(x8)\14/12(x4)-10(x4)---------------|
E|-----------------8-12(x5)-------12---------------------------------------------|

G|---------10---------------------------------------------------12-14-16-17---------|
D|------------------------------14--------------------------------------------------|
A|--8(x5)-----8-------------------------10-12(x8)\14/12-----------------------------|
E|-----------------8-12(x5)-------12------------------------------------------------|

x2
G|---------------------------------------------9-10-------|
D|------------------------------------10-12---------------|
A|--------------------------------------------------------|
E|--1(x4)-3(x4)\7-5(x4)-8(x2)-----------------------------|

x2
G|---------10-------------------12-------------------------------17-19-21-22-------------|
D|---------------------------------------------------------------------------------------|
A|--8(x5)-----8(x2)-10(x5)------10(x2)--12(x8)-15(x4)------------------------------------|
E|---------------------------------------------------------------------------------------|

Other versions of Beauty And A Beat

Beauty and a beat (Ver. 2)Bass tabs

Almost there ...

Sign in to get your own page with links to favourite songs and more. You are just one click away...

Login with Facebook Login with Google