Log in

One click and you are in

Login with Facebook Login with Google

Why sign up and log in

Guitar Tabs Explorer
Justin Bieber chords for 2 much ukulele

Guitar chords with lyrics

Tuning: G C E A (G C E A)


Verse 1:
A|-2-0-2-5-4-0-0-|---------------------------|-0-2-0-2-5-4----------|
E|---------------|-3-5-3-2-3-2-0-2-0-----2-2-|-------------5--5-5-3-|
C|---------------|-------------------2-2-----|----------------------|
G|---------------|---------------------------|----------------------|
A|-2-0-2-5-4-0-0-|-0-----------------------|-0-2-0-2-5-4---------|
E|---------------|---3-2-3-2-0-2-0-----2-2-|-------------5-5---7-|
C|---------------|-----------------2-2-----|-----------------6---|
G|---------------|-------------------------|---------------------|


Pre-Chorus:
A|-7-7-5-7--9---5-7-7-5-|-0-------------------2-2-0-|
E|------------7---------|---3-2-0---0-0---0-2-------|
C|----------------------|---------2-----2-----------|
G|----------------------|---------------------------|


Chorus:
A|-----0-5-4---5-4---2-|-------0---------|-5-4---5-4-----|-------0---------|
E|---2-------5-----5---|-----3---3-------|-----5-----5-7-|-----3---3-------|
C|-2-------------------|-4-6-------6-4-2-|---------------|-4-6-------6-4-2-|
G|---------------------|-----------------|---------------|-----------------|

A|-0-2---0-------|-2---0---------|-----0-5-4---5-4---5-4---5-4---2-|
E|-----2---3-2-0-|---2---3-2-0---|---2-------5-----5-----5-----5---|
C|---------------|-------------2-|-2-------------------------------|
G|---------------|---------------|---------------------------------|


Verse 2:
Bm          D
 I can turn the old things back
G                      Bm
I need you more than I led you to believe I do
               D   G
'Cause you can think it might be too much, oh yeah
Bm         D
 I don't wanna be my past
G                      Bm
Oh, when we kiss I'm alive, and I feel brand new
              D     G
There's nothing that I want more than us


Pre-Chorus:
D      G        Bm    A
Night after night you fall asleep on me
          D       G
I'm prayin' that I don't go back to who I was


Chorus:
      Bm       D      G
I feel like I don't deserve you tonight

It's in the way that you hold
Bm       D      G
I don't deserve you tonight

It's in the things that you showed
Bm         D     G
 I need you, don't let me go, need you, don't let me go
      Bm      D      G
I feel like I don't de-, I don't de-, I don't deserve you tonight


Bridge:
Em         D       G
Somewhere in the sky, the way your body fits on mine
       C                Bm
And when you give in to me, so high but I'm fallin'
    Em          D    G
And my eyes are locked on you, as you dance around the room
  A              C
And finally, I'm right where I belong, oh


Chorus:
      Bm       D      G
I feel like I don't deserve you tonight

It's in the way that you hold
Bm       D      G
I don't deserve you tonight

It's in the things that you showed
Bm         D     G
 I need you, don't let me go, need you, don't let me go
      Bm      D      G     N.C.
I feel like I don't de-, I don't de-, I don't deserve you tonight


Outro:
Bm   D  G                Bm   D  G
      I don't deserve you, no I don't, no
                     Bm   D  G
Girl, I need you, I can't breathe without you

Bm   D  G

Almost there ...

Sign in to get your own page with links to favourite songs and more. You are just one click away...

Login with Facebook Login with Google