Log in

One click and you are in

Login with Facebook Login with Google

Why sign up and log in

Guitar Tabs Explorer
Between The Buried And Me tabs for Disease injury madness

Disease Injury Madness tab - Between The Buried And Me

Between The Buried And Me tabs for Disease injury madness

Solo tabs

This is my tab for the second "rock" part after the later clean stuff in the second half
"Disease, Injury, Madness" off of The Great Misdirect (around 8:45 in the song).  this
probably my favorite song off the whole album, maybe because of the two southern/rock
in it.  anyway, here goes...

This is in BTBAM's tuning...1 1/2 steps down:

A chord diagramC#C#|---
A chord diagramG#G#|---
A chord diagramE MajorE |---
A chord diagramBB |---
A chord diagramF#F#|---
A chord diagramC#C#|---
Guitar 1
A chord diagramC#C#||--------------------------------------------------------------|
A chord diagramG#G#||--------------------------------------------------------------|
A chord diagramE MajorE ||------------------------12/14--10------10/12-----------12/14--|
A chord diagramBB ||--12---0--10--0--12--0--------------0---------12----12--------|
A chord diagramF#F#||--------------------------------------------------------------|
A chord diagramC#C#||--------------------------------------------------------------|


Guitar 2
A chord diagramC#C#||--------------------------------------------------------------|
A chord diagramG#G#||--------------------------------------------------------------|
A chord diagramE MajorE ||------------------------17/19--17------17/19------------17----|
A chord diagramBB ||--19---0--17--0--19--0--------------0---------15----15--------|
A chord diagramF#F#||--------------------------------------------------------------|
A chord diagramC#C#||--------------------------------------------------------------|

Guitar 1
|---------------------------------------------------|-------------------|
|---------------------------15----------------------|-------------------|
|12-----12--14--12--15--12------12------12--14--12--|--15--12-----------|
|---------------------------------------------------|----------10---12--|
|---------------------------------------------------|-------------------|
|---------------------------------------------------|-------------------|


Guitar 2
|---------------------------17----------------------|-------------------|
|-----------17------18----------------------17------|--18---------------|
|19-----19------19------19------19------19------19--|------19-----------|
|---------------------------------------------------|----------17---19--|
|---------------------------------------------------|-------------------|

Almost there ...

Sign in to get your own page with links to favourite songs and more. You are just one click away...

Login with Facebook Login with Google