Log in

One click and you are in

Login with Facebook Login with Google

Why sign up and log in

Guitar Tabs Explorer
Bethel Music bass tabs for Raise a hallelujah

Bass tabs with lyrics

Tuning: Standard (E A D G)

Key: D

Difficulty: Novice

Raise a Hallelujah – Bethel Music
Key = D
Time = 4/4
Tempo = 75
Verse 1 - No Bass:
D             D
1 + 2 + 3 + 4|1 + 2 + 3 + 4|
D             D
1 + 2 + 3 + 4| 1 + 2 + 3 + 4|
D             D
1 + 2 + 3 + 4|1 + 2 + 3 + 4|
D             D
1 + 2 + 3 + 4| 1 + 2 + 3 + 4|
D             D
1 + 2 + 3 + 4|1 + 2 + 3 + 4|
D             D
1 + 2 + 3 + 4| 1 + 2 + 3 + 4|
D             D
1 + 2 + 3 + 4|1 + 2 + 3 + 4|
D             D
1 + 2 + 3 + 4| 1 + 2 + 3 + 4|



Chorus:
  G2            D             Bm7           A4
G|-------------|-------------|4---4---4---4|-2--2----2---2|
D|-------------|-------------|-------------|--------------|
A|-------------|5---5---5---5|-------------|--------------|
E|3---3---3---3|-------------|-------------|--------------|
  1 + 2 + 3 + 4|1 + 2 + 3 + 4|1 + 2 + 3 + 4| 1 + 2 + 3 + 4

  G2            D             Bm7           A4
G|-------------|-------------|4---4---4---4|-2--2----2---2|
D|-------------|-------------|-------------|--------------|
A|-------------|5---5---5---5|-------------|--------------|
E|3---3---3---3|-------------|-------------|--------------|
  1 + 2 + 3 + 4|1 + 2 + 3 + 4|1 + 2 + 3 + 4| 1 + 2 + 3 + 4


Turn Around:
  D             D
G|-------------|-------------|
D|-------------|-------------|
A|5---5---5---5|5---5---5---5|
E|-------------|-------------|
  1 + 2 + 3 + 4|1 + 2 + 3 + 4


?

Verse 2:
  D             G2            Bm7           A4
G|-------------|-------------|4---4---4---4|-2--2----2---2|
D|-------------|-------------|-------------|--------------|
A|5---5---5---5|-------------|-------------|--------------|
E|-------------|3---3---3---3|-------------|--------------|
  1 + 2 + 3 + 4|1 + 2 + 3 + 4|1 + 2 + 3 + 4| 1 + 2 + 3 + 4


  D             G2            Bm7           A4
G|-------------|-------------|4---4---4---4|-2--2----2---2|
D|-------------|-------------|-------------|--------------|
A|5---5---5---5|-------------|-------------|--------------|
E|-------------|3---3---3---3|-------------|--------------|
  1 + 2 + 3 + 4|1 + 2 + 3 + 4|1 + 2 + 3 + 4| 1 + 2 + 3 + 4

  D             G2            Bm7           A4
G|-------------|-------------|4---4---4---4|-2--2----2---2|
D|-------------|-------------|-------------|--------------|
A|5---5---5---5|-------------|-------------|--------------|
E|-------------|3---3---3---3|-------------|--------------|
  1 + 2 + 3 + 4|1 + 2 + 3 + 4|1 + 2 + 3 + 4| 1 + 2 + 3 + 4


  D             G2            Bm7           A4
G|-------------|-------------|4---4---4---4|-2--2----2---2|
D|-------------|-------------|-------------|--------------|
A|5---5---5---5|-------------|-------------|--------------|
E|-------------|3---3---3---3|-------------|--------------|
  1 + 2 + 3 + 4|1 + 2 + 3 + 4|1 + 2 + 3 + 4| 1 + 2 + 3 + 4


  D             G2            Bm7           A4
G|-------------|-------------|4---4---4---4|-2--2----2---2|
D|-------------|-------------|-------------|--------------|
A|5---5---5---5|-------------|-------------|--------------|
E|-------------|3---3---3---3|-------------|--------------|
  1 + 2 + 3 + 4|1 + 2 + 3 + 4|1 + 2 + 3 + 4| 1 + 2 + 3 + 4


  D             G2            Bm7           A4
G|-------------|-------------|4---4---4---4|-2--2----2---2|
D|-------------|-------------|-------------|--------------|
A|5---5---5---5|-------------|-------------|--------------|
E|-------------|3---3---3---3|-------------|--------------|
  1 + 2 + 3 + 4|1 + 2 + 3 + 4|1 + 2 + 3 + 4| 1 + 2 + 3 + 4


  D             G2            Bm7           A4
G|-------------|-------------|4---4---4---4|-2--2----2---2|
D|-------------|-------------|-------------|--------------|
A|5---5---5---5|-------------|-------------|--------------|
E|-------------|3---3---3---3|-------------|--------------|
  1 + 2 + 3 + 4|1 + 2 + 3 + 4|1 + 2 + 3 + 4| 1 + 2 + 3 + 4


  D             G2            Bm7           A4
G|-------------|-------------|4---4---4---4|-2--2----2---2|
D|-------------|-------------|-------------|--------------|
A|5---5---5---5|-------------|-------------|--------------|
E|-------------|3---3---3---3|-------------|--------------|
  1 + 2 + 3 + 4|1 + 2 + 3 + 4|1 + 2 + 3 + 4| 1 + 2 + 3 + 4


Turn Around:
  D             D
G|7-7-7-7------|-------------|
D|-------------|-------------|
A|----5---5---5|5---5---5---5|
E|-------------|-------------|
  1 + 2 + 3 + 4|1 + 2 + 3 + 4


Bridge:
  D                           A
G|-------------|-------------|2------------|2-------------|
D|-------------|-------------|-------------|--------------|
A|5------------|5------------|-------------|--------------|
E|-------------|-------------|-------------|--------------|
  1 + 2 + 3 + 4|1 + 2 + 3 + 4|1 + 2 + 3 + 4| 1 + 2 + 3 + 4

  Bm7                         G
G|-------------|-------------|-------------|--------------|
D|-------------|-------------|-------------|--------------|
A|2------------|2------------|-------------|--------------|
E|-------------|-------------|3------------|3-------------|
  1 + 2 + 3 + 4|1 + 2 + 3 + 4|1 + 2 + 3 + 4| 1 + 2 + 3 + 4

  D                           A
G|-------------|-------------|2------------|2-------------|
D|-------------|-------------|-------------|--------------|
A|5------------|5------------|-------------|--------------|
E|-------------|-------------|-------------|--------------|
  1 + 2 + 3 + 4|1 + 2 + 3 + 4|1 + 2 + 3 + 4| 1 + 2 + 3 + 4

  Bm7                         G
G|-------------|-------------|-------------|--------------|
D|-------------|-------------|-------------|--------------|
A|2------------|2------------|-------------|--------------|
E|-------------|-------------|3------------|3-------------|
  1 + 2 + 3 + 4|1 + 2 + 3 + 4|1 + 2 + 3 + 4| 1 + 2 + 3 + 4

  D                           A
G|-------------|-------------|2------------|2-------------|
D|-------------|-------------|-------------|--------------|
A|5------------|5------------|-------------|--------------|
E|-------------|-------------|-------------|--------------|
  1 + 2 + 3 + 4|1 + 2 + 3 + 4|1 + 2 + 3 + 4| 1 + 2 + 3 + 4

  Bm7                         G
G|-------------|-------------|-------------|--------------|
D|-------------|-------------|-------------|--------------|
A|2------------|2------------|-------------|--------------|
E|-------------|-------------|3------------|3-------------|
  1 + 2 + 3 + 4|1 + 2 + 3 + 4|1 + 2 + 3 + 4| 1 + 2 + 3 + 4


Tag 2:
  G
G|-------------|-------------|-------------|--------------|
D|-------------|-------------|-------------|--------------|
A|2------------|2------------|-------------|--------------|
E|3-3-3-3-3-3-3|3-3-3-3-3-3-3|3-3-3-3-3-3-3|3--3-3-3-3-3-3|
  1 + 2 + 3 + 4|1 + 2 + 3 + 4|1 + 2 + 3 + 4|1 + 2 + 3 + 4


Chorus 2:
  G2            D             Bm7           A4
G|-------------|-------------|4-4-4-4-4-4-4|-2-2-2-2-2-2-2|
D|-------------|-------------|-------------|--------------|
A|-------------|5-------5----|-------------|--------------|
E|3-------3----|-------------|-------------|--------------|
  1 + 2 + 3 + 4|1 + 2 + 3 + 4|1 + 2 + 3 + 4| 1 + 2 + 3 + 4


  G2            D             Bm7           A4
G|-------------|-------------|4---4---4---4|-2--2----2---2|
D|-------------|-------------|-------------|--------------|
A|-------------|5---5---5---5|-------------|--------------|
E|3---3---3---3|-------------|-------------|--------------|
  1 + 2 + 3 + 4|1 + 2 + 3 + 4|1 + 2 + 3 + 4| 1 + 2 + 3 + 4



[Ending)
  D             D             G2            G2
G|-------------|-------------|-------------|--------------|
D|-------------|-------------|-------------|--------------|
A|5-------5----|5-------5----|-------------|--------------|
E|-------------|-------------|3-------3----|3--------3----|
  1 + 2 + 3 + 4|1 + 2 + 3 + 4|1 + 2 + 3 + 4| 1 + 2 + 3 + 4


  Bm7           Bm7           Asus           Asus
G|4-------4----|4-------4----|2-------2----|2--------2----|
D|-------------|-------------|-------------|--------------|
A|-------------|-------------|-------------|--------------|
E|-------------|-------------|-------------|--------------|
  1 + 2 + 3 + 4|1 + 2 + 3 + 4|1 + 2 + 3 + 4| 1 + 2 + 3 + 4

  G             G             G             G
G|-------------|-------------|-------------|--------------|
D|-------------|-------------|-------------|--------------|
A|-------------|-------------|-------------|--------------|
E|3-------3----|3-------3----|3-------3----|3-------3-----|
  1 + 2 + 3 + 4|1 + 2 + 3 + 4|1 + 2 + 3 + 4| 1 + 2 + 3 + 4

Almost there ...

Sign in to get your own page with links to favourite songs and more. You are just one click away...

Login with Facebook Login with Google