Log in

One click and you are in

Login with Facebook Login with Google

Why sign up and log in

Guitar Tabs Explorer
Beth Ditto bass tabs for Oo la la

Bass tabs

Beth Ditto – Oo la la


Verse Riff;
G|----------------|----------------|
D|----------------|----------------|
A|3-3---1---3-3---|-3---3-1---3----|
E|----------------|----------------|
Intro;
- Play Verse Riff 4x


Verse1 (Smooth talker, I'm a lover);
- Play Verse Riff 8x


Pre-Chorus1 (Let's get the rhythm of the head)
- Play Verse Riff 3x
- 2 bars rest


Chorus1 (Oh my my);
G|----------------|----------------|----------------|--5-3---3-------|
D|----------------|----------------|----------------|------5---5-3---|
A|1-1-1-1-1-1-1-1-|1-1-1-1-1-1-1-1-|3-3-3-3-3-3-3-3-|3-------------5-|
E|----------------|----------------|----------------|----------------| 3x

G|----------------|----------------|----------------|----------------|
D|----------------|----------------|----------------|----------------|
A|1-1-1-1-1-1-1-1-|1-1-1-1-1-1-1-1-|3-3-3-3-3-3-3-3-|3-3-3-3-3-3-3-3-|
E|----------------|----------------|----------------|----------------|

- Play Verse Riff 2x

Verse2 (Two sisters);
- Play Verse Riff 8x


Pre-Chorus2 (Let's get the rhythm of the head);
- 4 bars rest


Chorus2 (Oh my my); play next 8 bars 3x
G|----------------|----------------|----------------|--5-3---3-------|
D|----------------|----------------|----------------|------5---5-3---|
A|1-1-1-1-1-1-1-1-|1-1-1-1-1-1-1-1-|3-3-3-3-3-3-3-3-|3-------------5-|
E|----------------|----------------|----------------|----------------|

G|----------------|----------------|----------------|----------------|
D|----------------|----------------|----------------|----------------|
A|1-1-1-1-1-1-1-1-|1-1-1-1-1-1-1-1-|3-3-3-3-3-3-3-3-|3-3-3-3-3-3-3-3-|
E|----------------|----------------|----------------|----------------|


Outro (Say oo la la);
G|----------------|----------------|----------------|----------------|
D|----------------|----------------|----------------|----------------|
A|1---------------|1---------------|3---------------|3---------------|
E|----------------|----------------|----------------|----------------| 2x

Next 8 bars 2x
G|----------------|----------------|----------------|--5-3---3-------|
D|----------------|----------------|----------------|------5---5-3---|
A|1-1-1-1-1-1-1-1-|1-1-1-1-1-1-1-1-|3-3-3-3-3-3-3-3-|3-------------5-|
E|----------------|----------------|----------------|----------------|

G|----------------|----------------|----------------|----------------|
D|----------------|----------------|----------------|----------------|
A|1-1-1-1-1-1-1-1-|1-1-1-1-1-1-1-1-|3-3-3-3-3-3-3-3-|3-3-3-3-3-3-3-3-|
E|----------------|----------------|----------------|----------------|

Then;
G|----------------|----------------|
D|----------------|----------------|
A|1-1-1-1-1-1-1-1-|1-1-1-1-1-1-1-1-|
E|----------------|----------------|

Almost there ...

Sign in to get your own page with links to favourite songs and more. You are just one click away...

Login with Facebook Login with Google