Top 5 'How You Remind Me' chords and tabs

The five best 'How You Remind Me' chords and tabs by Nickelback. Learn 'How You Remind Me' the easy way with these guitar chords, tabs and lessons.

Number 1

1. How you remind me, guitar tabs

  • Tabs
  • 66 Lines
e|---------------------------------------------------------|
G|---------------------------------------------------2-2---|
G|----6-6-6-------------3---------4-4-4--------------2-2---|
D|----6-6-6-------------4---------4-4-4--------------2-2---|
A|----4-4-4-------------2---------2-2-2--------------0-0---|
E|---------------------------------------------------------|

Go to tabs

Number 2

2. How you remind me, guitar chords

  • Chords
  • 66 Lines
e|------------------------------------------------------------|
G|------------------------------------------------------2-2---|
G|----6-6-6----------------3---------4-4-4--------------2-2---|
D|----6-6-6----------------4---------4-4-4--------------2-2---|
A|----4-4-4----------------2---------2-2-2--------------0-0---|
E|------------------------------------------------------------|

Go to chords

Number 3 Nickelback How you remind me (Ver2) guitar chords

3. How you remind me (Ver2), guitar chords

  • Not rated
  • Chords
  • 60 Lines
E|---3--------------3-------------1---------------1------------|
B|---3--------------3-------------1---------------1------------|
G|---5--------------5-------------3---------------3------------|
D|---5--------------5-------------3---------------3------------|
A|---3----------------------------1----------------------------|
E|------------------3-----------------------------1------------|

Go to chords

Number 4

4. How you remind me acoustic, guitar tabs

  • Not rated
  • Tabs
  • 101 Lines
E|-x--x--x--x----1--1--1--1---------------------|
B|-x--x--x--x----1--1--1--1---------------------|
G|-5—-5--5--5----3--3--3--3---------------------|
D|-5—-5--5--5----3--3--3--3---------------------|
A|-7—-7--7--7----1--1--1--1---------------------|
E|-8--8--6--6----------1--1---------------------|

Go to tabs

Number 5

5. How you remind me acoustic, guitar chords

  • Not rated
  • Chords
  • 88 Lines
e|----------------------------------------------------|
B|-3----3----1----1-----------------------------------|
G|-3----3----1----1-----------------------------------|
D|-5----3----3----1-----------------------------------|
A|-5----3----3----1-----------------------------------|
E|-3----3----1----1-----------------------------------|

Go to chords