Top 5 'Hero' chords and tabs

The five best 'Hero' chords and tabs by Nickelback. Learn 'Hero' the easy way with these guitar chords, tabs and lessons.

Number 1

1. Hero (Ver2), guitar chords

  • Chords
  • 32 Lines
E|------------------------------------------------------------
B|------------------------------------------------------------
G|------------------------------------------------------------
D|------------------------------------------------------------
A|-7676765---7676764---2----5---9797975---9797974--2-5-7-9----
E|------------------------------------------------------------
                        G

Go to chords

Number 2

2. Hero, guitar chords

  • Chords
  • 55 Lines
verse two

 Am A2          Am      A2            F
       someone told me love will not save us
Am  A2         Am       A2            F
      how can that be look what love gave us
                       Ab           Bb

Go to chords

Number 3

3. Hero acoustic, guitar chords

  • Not rated
  • Chords
  • 83 Lines
verses, all the chords should be played as barre chords, playing it with the 'F'
at different frets.

Also this is my first tab, I would be grateful if you could please rate and leave
and constructive criticism.

Sorry about all the lines, as I'm new to this, I couldn't get the chords to stay in the

Go to chords

Number 4

4. Hero, guitar tabs

  • Not rated
  • Tabs
  • 124 Lines
e-Chorus
----------------|----------------|----------------|
----------------|----------------|----------------|
----------------|----------------|----------------|
5-5-5-5-5-5-7-7-|7-7-7-7-2-2-2-2-|2-2-2-2-2-2-----|
5-5-5-5-5-5-7-7-|7-7-7-7-2-2-2-2-|2-2-2-2-2-2-----|
3-3-3-3-3-3-3-3-|3-3-3-3-0-0-0-0-|0-0-0-0-0-0-----|

Go to tabs

Number 5

5. Hero, guitar tabs

  • Not rated
  • Tabs
  • 21 Lines
I dont know if this is completely right but it sounds pretty damn
good to me. If you have any corrections or anything please email me
at heavyd_1_2000@yahoo.com


|--------------------------------------------------------------------|
|--------------------------------------------------------------------|

Go to tabs