Top 3 'Animals' chords and tabs

The three best 'Animals' chords and tabs by Nickelback. Learn 'Animals' the easy way with these guitar chords, tabs and lessons.

Number 1

1. Animals (Ver2), guitar tabs

  • Not rated
  • Tabs
  • 25 Lines
e|----------------|
b|----------------|
g|-7-7-----5------|
D|-7-7--3--5--5-5-| X 4
A|-5-5--3--3--5-5-|
D|------3-----5-5-|

Go to tabs

Number 2

2. Animals, guitar chords

  • Not rated
  • Chords
  • 91 Lines
Verses Sound Pretty Cool with this Stroke Pattern

   < >     < <     < >     < <     < >     < <     < >     < <
---2-2--X--2-2--X--3-3--X--3-3--X--3-3--X--3-3--X--3-3--X--3-3------------|
---3-3--X--3-3--X--3-3--X--3-3--X--3-3--X--3-3--X--3-3--X--3-3------------|
---2-2--X--2-2--X--0-0--X--0-0--X--0-0--X--0-0--X--2-2--X--2-3------------|
---0-0--X--0-0--X--0-0--X--0-0--X--2-2--X--2-2--X--2-2--X--2-3------------|

Go to chords

Number 3

3. Animals, guitar tabs

  • Not rated
  • Tabs
  • 61 Lines
Verses


|-5--5-5-5--5-5-5--5-5-5--5-3-3--3-3-3--3-3-3--3-3-3--3-5-5
|-6--6-6-6--6-6-6--6-6-6--6-3-3--3-3-3--3-4-4--4-4-4--4-6-6
|-7--7-7-7--7-7-7--7-7-7--7-4-4--4-4-4--4-5-5--5-5-5--5-7-7
|-7--7-7-7--7-7-7--7-7-7--7-5-5--5-5-5--5-5-5--5-5-5--5-7-7

Go to tabs