Top 5 'This Is The Life' chords and tabs

Best Amy MacDonald This is the life (Ver2) chords and tabs The five best 'This Is The Life' chords and tabs by Amy MacDonald, and a runner-up. "This is the life" is from Amy Macdonald's 2007 album with the same name. It has a folk/indie sound and is guitar based. It did very well in the charts all over Europe.The song has been used in various commercials, i.e. Fiat 500, contributing to it's long lasting success. Amy Macdonald has written the song he ...

Number 1 Amy MacDonald This is the life (Ver3) guitar chords

1. This is the life (Ver3), guitar chords

  • Chords
  • 47 Lines
Verse 1:
      C#
Oh the wind whistles down
A
On the cold dark street tonight
          E                             G#
And the people they are dancing to the music vibe

Go to chords

Number 2 Amy MacDonald This is the life guitar chords

2. This is the life, guitar chords

  • Chords
  • 78 Lines
Verse 1

Bm
Oh the wind whistles down
    G
The cold dark street tonight
        D                        F#

Go to chords

Number 3

3. This is the life, guitar tabs

  • Tabs
  • 6 Lines
e|-----0-------0-----------0-------0-0-0-0-0-2-4-0-0-2-4-2-0-----------------|
B|-2-4---2-2-4---2-2-2-2-4---2-2-4---------------------------4---------------|
G|---------------------------------------------------------------------------|
D|---------------------------------------------------------------------------|
A|---------------------------------------------------------------------------|
E|---------------------------------------------------------------------------|e|-e|-e|-e|-

Go to tabs

Number 4 Amy MacDonald This is the life (Ver4) guitar chords

4. This is the life (Ver4), guitar chords

  • Not rated
  • Chords
  • 12 Lines
Chorus:

                        Em
And you're singing the songs

Thinking this is the life
                         C

Go to chords

Number 5 Amy MacDonald This is the life guitar tabs

5. This is the life, guitar tabs

  • Not rated
  • Tabs
  • 24 Lines
e|---4---4--4----4--------0---------0--------4---------------|
B|---5---5--5----5--------2---------0--------4---------------|
G|---6---6--6----6--x8----2--x8-----1-x8-----5--x8-----------|
D|---6---6--6----6--------2---------2--------6---------------|
A|---4---4--4----4--------0---------2--------6---------------|
E|------------------------x---------0------------------------|

Go to tabs

One runner-up

Song titleTypeRating
This is the life (Ver2)Guitar chordsNot rated