Top 5 'I Was Made For Lovin You' chords and tabs

The five best 'I Was Made For Lovin You' chords and tabs by Kiss. Released on the Dynasty album and as a single in 1979, I was made for lovin' you is till the largest successful song for Kiss. The disco style where quite popular in the late seventies so Kiss wanted to do a song close to that style. The musical result can be seen in the Kiss I was made for lovin' you guitar ...

Number 1 Kiss I was made for lovin you (Ver4) guitar tabs

1. I was made for lovin you (Ver4), guitar tabs

  • Tabs
  • 81 Lines
e--------------------------------------------------------------------------------
B---------------------------------------10--8-----10-10-8------------------5--5/3
G---------------------------------------9---9-----9---9--9-------7---5----4--4/2-
D---------------------------------------7---7-----7---7--7-------7---7-----------
A--------------------------------------------------------------------------------
E---0-0-0-0-0-0-0-0-0-0-0-0-0-0-0------------------------------------------------
                                                                       repeat

Go to tabs

Number 2 Kiss I was made for lovin you guitar chords

2. I was made for lovin you, guitar chords

  • Chords
  • 17 Lines
chorus)
I was made for lovin you baby
You were made for lovin me
And I cant get enough of you baby
Can you get enough of me

Em              Am

Go to chords

Number 3 Kiss I was made for lovin you guitar tabs

3. I was made for lovin you, guitar tabs

  • Tabs
  • 127 Lines
e|------------------------------------------|
B|-10--8----10--10--8-----------------------|
G|-9---9----9---9---9---7--5---9--9--7------|
D|----------------------7--7---7--7--7------|
A|------------------------------------------|
E|------------------------------------------|

Go to tabs

Number 4 Kiss I was made for lovin you (Ver3) guitar tabs

4. I was made for lovin you (Ver3), guitar tabs

  • Not rated
  • Tabs
  • 126 Lines
e|----------------|
B|----------------|
G|----------------|
D|----------------|
A|----------------|
E|-0-0-0-0-0-....-|

Go to tabs

Number 5

5. I was made for lovin you (Ver2), guitar tabs

  • Not rated
  • Tabs
  • 63 Lines
E|----------------------------------------------------|
B|----------------------------------------------------|
G|---------------------------------14-12--14-14-12----|
D|---------------------------------14-14--14-14-14----|
A|----------------------------------------------------|
E|-0-0-0-0-0-0-0-0-0-0-0-0-0-0-0-0--------------------|

Go to tabs