Top 3 'Every Time I Look At You' chords and tabs

The three best 'Every Time I Look At You' chords and tabs by Kiss. 'Every time I look at you' is a song from legendary hard/glam rockers Kiss' 1992 album 'Revenge'.Kiss performed 'Evey time I look at you' during the tour after the album release. It was also included in their MTV Unplugged performance. ...

Number 1 Kiss Every time i look at you (Ver2) guitar chords

1. Every time i look at you (Ver2), guitar chords

  • Chords
  • 46 Lines
E|--3---3-----0--x--0-----2----|
B|--3---3-----1--3--1-----3----|
G|--0---0-----0--0--0-----2----|
D|--0---0-----2--4--2-----0----|
A|--2---2-----3--5--3-----x----|
E|--3---3-----x--x--x-----x----|

Go to chords

Number 2 Kiss Every time i look at you guitar chords

2. Every time i look at you, guitar chords

  • Chords
  • 88 Lines
VERSE 1

G
Tried to say I'm sorry I ...
     D                                 C
And find you waiting ...
  D

Go to chords

Number 3 Kiss Every time i look at you guitar tabs

3. Every time i look at you, guitar tabs

  • Not rated
  • Tabs
  • 88 Lines
E--3--3-----2--3--2--
B--3--3--3--3--3--3--
G-----------------2--
D--------2-----------
A--2--2--3--3--2-----
E--------------------

Go to tabs