Top 3 'Detroit Rock City' chords and tabs

Best Kiss Detroit rock city chords and tabs The three best 'Detroit Rock City' chords and tabs by Kiss, and a runner-up. Learn 'Detroit Rock City' the easy way with these guitar chords, tabs and lessons.

Number 1 Kiss Detroit rock city guitar tabs

1. Detroit rock city, guitar tabs

  • Tabs
  • 180 Lines
Verses

--------------------------------------
--------------------------------------
-6----9-----4------11--------------
-6----9-----4------11--------------
-4----7-----2------9----------------

Go to tabs

Number 2 Kiss Detroit rock city (Ver2) guitar chords

2. Detroit rock city (Ver2), guitar chords

  • Not rated
  • Chords
  • 48 Lines
Verse
C
Gettin' late I just can't wait
D#                                     A#    F
Ten o'clock and I know I gotta hit the road
C
First I drink then I smoke

Go to chords

Number 3

3. Detroit rock city live, guitar tabs

  • Not rated
  • Tabs
  • 144 Lines
e|----------------------------------|---------------------------------------|
B|----------------------------------|---------------------------------------|
G|----------------------------------|---------------------------------------|
D|----------------------------------|---------------------------------------|
A|--4-2-4-2-4-2-4-2-4-2-4-2-4-2-4-2-|-4-2-4-2-4-2-4-2--444-444-4------------|
E|----------------------------------|---------------------------------------|

Go to tabs

One runner-up

Song titleTypeRating
Detroit rock cityGuitar chordsNot rated