Top 5 'Blood Brothers' chords and tabs

The five best 'Blood Brothers' chords and tabs by Iron Maiden. Learn 'Blood Brothers' the easy way with these guitar chords, tabs and lessons.

Number 1

1. Blood brothers, guitar tabs

  • Tabs
  • 25 Lines
E|--------------------------------------|
B|--------------------------------------|
G|-------------0--0---2-----------------|
D|--------0---------0--0----------------|
A|--2-2------3---3----------------------|
E|-0-0--3--3----------------------------|

Go to tabs

Number 2

2. Blood brothers acoustic, guitar tabs

  • Tabs
  • 127 Lines
e|----------------------------------------------|
B|----------------------------------------------|
G|----------------------------------------------|
D|-----2--------5-------10-----------12---------|
A|---2---2----5------10----10-----12------------|
E|-0--------3------8-----------10---------------|

Go to tabs

Number 3 Iron Maiden Blood brothers (Ver2) guitar tabs

3. Blood brothers (Ver2), guitar tabs

  • Not rated
  • Tabs
  • 72 Lines
E|---------------------------------|
B|---------------------------------|
G|---------------------------------|
D|-------------------5---5----7----|
A|---2---2----5----3---3----5---5--|
E|-0---0----3---3------------------|  3 vezes.

Go to tabs

Number 4 Iron Maiden Blood brothers guitar chords

4. Blood brothers, guitar chords

  • Not rated
  • Chords
  • 58 Lines
E|---------------------------------|
B|---------------------------------|
G|---------------------------------|
D|-------------------5---5----7----|
A|---2---2----5----3---3----5---5--|
E|-0---0----3---3------------------|  3 vezes.

Go to chords

Number 5 Iron Maiden Blood brothers guitar tabs

5. Blood brothers, guitar tabs

  • Not rated
  • Tabs
  • 114 Lines
e|---------8---7----7--------------------------
B|-9---7-9-------10----10-8-10-8-7-------------
G|---------------------------------------------
D|---------------------------------------------
A|---------------------------------------------
E|---------------------------------------------

Go to tabs