Top 3 '2 Minutes To Midnight' chords and tabs

The three best '2 Minutes To Midnight' chords and tabs by Iron Maiden. “2 Minutes to Midnight” is from Iron Maiden’s “Powerslave” album from 1984. The song is written by Adrian Smith and Bruce Dickinson. The song has 2 guitar solos; both are included in these guitar tabs. The first guitar solo is played by Dave Murray, the second by Adrian Smith. Try to take their diff ...

Number 1 Iron Maiden 2 minutes to midnight guitar tabs

1. 2 minutes to midnight, guitar tabs

  • Tabs
  • 762 Lines
e-Chorus
  Gtr I
  Q   E E Q   E E   +H     Q   E E   Q   E E Q   E E   +H   E E E E
|-----------------|----------------|-----------------|------------------|
|---------------6-|-(6)----6-------|-3-------3-------|------------------|
|-2---x-x-2---x-5-|-(5)----5---x-x-|-4---x-x-4---x-5-|-(5)--5s4-4p2-----|
|-2---x-x-2---x-7-|-(7)----7---x-x-|-5---x-x-5---x-5-|-(5)--5s4-4p2-----|

Go to tabs

Number 2 Iron Maiden 2 minutes to midnight (Ver2) guitar tabs

2. 2 minutes to midnight (Ver2), guitar tabs

  • Not rated
  • Tabs
  • 58 Lines
e----------------------------|
----------------14b-12-----7-----7v------|
----------------------14v----9-7---------|
-----------------------------------------|
-----------------------------------------|

-12------------------------------------------------------------|

Go to tabs

Number 3

3. 2 minutes to midnight, guitar tabs

  • Not rated
  • Tabs
  • 76 Lines
e---------|
-------------------------------------------------------------|
-------------------------------------------------------------|
-------------------------------------------------------------|

-------------------------------------------------------------|
-12-13-15-13-12h13p12-15-13-12h13p12-10h12p10-8h10p8---------|

Go to tabs