Top 3 '2 Am' chords and tabs

Best Iron Maiden 2 am chords and tabs The three best '2 Am' chords and tabs by Iron Maiden, and a runner-up. Learn '2 Am' the easy way with these guitar chords, tabs and lessons.

Number 1

1. 2 am, guitar tabs

  • Tabs
  • 47 Lines
e|-87-87-87-87-------------5--/8-7~~-----87-87-87-87-------------5--/12-10~~-|
B|-------------5~----5-5-6--------------------------5~----5-5-6--------------|
G|---------------------------------------------------------------------------|
D|---------------------------------------------------------------------------|
A|---------------------------------------------------------------------------|
E|---------------------------------------------------------------------------|

Go to tabs

Number 2 Iron Maiden 2 am guitar tabs

2. 2 am, guitar tabs

  • Tabs
  • 99 Lines
Intro : (Clean sound , Better with a Classic Guitar)
-]-----------0------------0----------0-------------------------------
-]-------1-0----------1-0--------1-0----------1-0--------------------
-]-----------------------------2-------------------------------------
-]----2-------------2--------0-------------2-------------------------
-]--0-------------3----------------------0---------------------------
-]-------------------------------------------------------------------

Go to tabs

Number 3

3. 2 am, guitar tabs

  • Tabs
  • 47 Lines
e|-87-87-87-87-------------5--/8-7~~-----87-87-87-87-------------5--/12-10~~-|
B|-------------5~----5-5-6--------------------------5~----5-5-6--------------|
G|---------------------------------------------------------------------------|
D|---------------------------------------------------------------------------|
A|---------------------------------------------------------------------------|
E|---------------------------------------------------------------------------|

Go to tabs

One runner-up

Song titleTypeRating
2 amGuitar chordsNot rated