Top 3 'Anna' chords and tabs

Best The Beatles Anna (go to him) chords and tabs The three best 'Anna' chords and tabs by The Beatles, and a runner-up. Learn 'Anna' the easy way with these guitar chords, tabs and lessons.

Number 1 The Beatles Anna guitar chords

1. Anna, guitar chords

  • Chords
  • 86 Lines
verses):

    D                     Bm                      D
-|----------------10--10--10--10--10--10--10--10--10-----------
-|--------7----------------------------------------------------
-|-----7-----7-------------------------------------------------
-|--7--------------7---8---9---8---9---8---9---8---7-----------

Go to chords

Number 2 The Beatles Anna guitar tabs

2. Anna, guitar tabs

  • Tabs
  • 87 Lines
verses):

    D                     Bm                      D
-|----------------10--10--10--10--10--10--10--10--10-----------
-|--------7----------------------------------------------------
-|-----7-----7-------------------------------------------------
-|--7--------------7---8---9---8---9---8---9---8---7-----------

Go to tabs

Number 3 The Beatles Anna (Ver2) guitar chords

3. Anna (Ver2), guitar chords

  • Chords
  • 87 Lines
verses):

    D                     Bm                      D
-|----------------10--10--10--10--10--10--10--10--10-----------
-|--------7----------------------------------------------------
-|-----7-----7-------------------------------------------------
-|--7--------------7---8---9---8---9---8---9---8---7-----------

Go to chords

One runner-up

Song titleTypeRating
Anna (go to him)Guitar chordsNot rated