Top 3 'And Your Bird Can Sing' chords and tabs

The three best 'And Your Bird Can Sing' chords and tabs by The Beatles. Learn 'And Your Bird Can Sing' the easy way with these guitar chords, tabs and lessons.

Number 1 The Beatles And your bird can sing (Ver2) guitar tabs

1. And your bird can sing (Ver2), guitar tabs

  • Tabs
  • 101 Lines
E-----------------|----------------|-------|----------------------|
B---9-7-5-7-5-4-5-|4-2-0---------5-|-9-9-9-|9---------------------|
G---9-8-6-8-6-4-6-|4-2-1-2-1-2-4-6-|-9-9-9-|9-9------9------------|
D-----------------|------4-2-4-6---|-------|--9------9-h11-9------|
A-----------------|----------------|-------|----11-12-------12-11-|
E-0---------------|----------------|-------|----------------------|

Go to tabs

Number 2 The Beatles And your bird can sing guitar chords

2. And your bird can sing, guitar chords

  • Not rated
  • Chords
  • 74 Lines
And Your Bird Can Sing chords
The Beatles

Go to chords

Number 3 The Beatles And your bird can sing guitar tabs

3. And your bird can sing, guitar tabs

  • Not rated
  • Tabs
  • 79 Lines
E------------------------------------------------
B---9-7-5-7-5-4-5-4-2-0-------0-2-9-9-9-10-9-----
G---9-8-6-8-6-4-6-4-2-1-2-1-2-1-2-9-9-9-10-9-9---
D-----------------------4-2-4------------------9-
A------------------------------------------------
E-0----------------------------------------------

Go to tabs