Top 5 'Say You Wont Let Go' chords and tabs

Best James Arthur Say you wont let go (Ver2) chords and tabs The five best 'Say You Wont Let Go' chords and tabs by James Arthur, and five runners-up. Learn 'Say You Wont Let Go' the easy way with these guitar chords, tabs and lessons.

Number 1

1. Say you wont let go (Ver4), guitar tabs

  • Tabs
  • 80 Lines
e|----0---------|----0---------|----0---------|--------------|
B|----2-2----2--|----2-2----2--|----2-2----2--|----3-3----3s2|
G|------2----2--|------2----2--|------2----2--|----2-2-------|   x5
D|--------------|-2-------2---2|--------------|-0-------0----|
A|-0-------0---0|--------------|--------------|--------------|
E|--------------|--------------|-2-------2---2|--------------|

Go to tabs

Number 2 James Arthur Say you wont let go acoustic guitar tabs

2. Say you wont let go acoustic, guitar tabs

  • Tabs
  • 240 Lines
e|---1--------|---1------------|---1---------|-------------------|
B|---3--3----3|---3--3----3----|---3--3----3-|------4--4-----4\3-|
G|------3----3|------3----3----|------3----3-|------3--3-----3---|
D|------------|-3----3--3------|-------------|---1---------1-----|
A|-1----1---1-|-------------0--|-------------|-------------------|
E|------------|----------------|-3----3---3--|-------------------|

Go to tabs

Number 3 James Arthur Say you wont let go (Ver3) guitar tabs

3. Say you wont let go (Ver3), guitar tabs

  • Tabs
  • 120 Lines
e|----------------------|----------------------|-------------------|---------------------|
B|-----3-----0----------|-----3-----0----------|-----3-----0-------|-----1-----1----1p0--|
G|-----0-----0-----2p0--|-----2-----2-----1s2--|-----0-----0--2p0--|-----0-----0---------|
D|-----0-----0----------|--0--------0--0-------|-----2-----2-------|-----2-----2---------|
A|----------------------|----------------------|-------------------|--3--------3--3------|
E|--3-----x--3--3-------|--------x-------------|--0-----x--0--0----|--------x------------|

Go to tabs

Number 4 James Arthur Say you wont let go (Ver3) guitar chords

4. Say you wont let go (Ver3), guitar chords

  • Chords
  • 156 Lines
E|-------------Z--------------|-------------|---------------|
B|---3-0-------|---3-0--------|---3-0-------|---1-1---1p0---|
G|---0-0---0---|---2-2----2---|---0-0---0---|---0-0-------0-|
D|-------------|-0------0---0-|-------------|---------------|
A|-------------|--------------|-------------|-3-----3-------|
E|-3-----3---3-|--------------|-0-----0---0-|---------------|
        G             D9            Em7              C

Go to chords

Number 5

5. Say you wont let go (Ver2), guitar tabs

  • Tabs
  • 13 Lines
e|----------------|--------------|-------------|------(3)------|
B|------3-0-------|----3-0-------|---3-0-------|---1-1---1p0---|
G|------0-0---0---|----2-2---2---|---0-0---0---|---0-0---------|
D|----------------|--0---0--0--0-|-------------|---------------|
A|----------------|--------------|-------------|-3---3--3---3--|
E|--3-----3-3---3-|--------------|-0---0--0--0-|---------------|

Go to tabs

Five runners-up

Song titleTypeRating
Say you wont let goGuitar chords
Say you wont let goGuitar tabs
Say you wont let go acousticGuitar chords
Say you wont let go (Ver2)Guitar chords
Say you wont let goGuitar tabsNot rated