Top 5 'Can I Be Him' chords and tabs

The five best 'Can I Be Him' chords and tabs by James Arthur. Learn 'Can I Be Him' the easy way with these guitar chords, tabs and lessons.

Number 1 James Arthur Can i be him guitar chords

1. Can i be him, guitar chords

  • Chords
  • 133 Lines
e|-(2)-|-----|-----|
e|-(4)-|-----|-----|
e|--4--|--3--|--4--|
e|--4--|--4--|--2--|
e|--2--|--1--|--2--|
e|-----|-----|--0--|
    B   F#/Bb   E5

Go to chords

Number 2

2. Can i be him (Ver3), guitar chords

  • Chords
  • 110 Lines
e-Chorus:
                  G
Now you're all I want
                Am                Em       D
And I knew it from the very first moment
                   G                      Am
Cause a light came on when I heard that song

Go to chords

Number 3 James Arthur Can i be him guitar tabs

3. Can i be him, guitar tabs

  • Not rated
  • Tabs
  • 130 Lines
e|----------------|----------------|----------------|------------------|
B|---3---3---3---3|---3---3---3---3|---1---1---1---1|---1---1---1---1--|
G|---0---0---0---0|---2---2---2---2|---0---0---0---0|---0---0---0---0--|
D|----------------|-0---0---0---0--|----------------|------------------|
A|----------------|----------------|-3---3---3---3--|-3---3---3---3----|
E|-3---3---3---3--|----------------|----------------|------------------|

Go to tabs

Number 4 James Arthur Can i be him acoustic guitar chords

4. Can i be him acoustic, guitar chords

  • Not rated
  • Chords
  • 110 Lines
Verse:
 G                    D
You walked into the room
                            C
And now my heart has been stolen
 G                   D                     C
You took me back in time to when I was unbroken

Go to chords

Number 5

5. Can i be him (Ver2), guitar chords

  • Not rated
  • Chords
  • 133 Lines
e|-(2)-|-----|-----|
e|-(4)-|-----|-----|
e|--4--|--3--|--4--|
e|--4--|--4--|--2--|
e|--2--|--1--|--2--|
e|-----|-----|--0--|
    B   F#/Bb   E5

Go to chords