Log in

One click and you are in

Login with Facebook Login with Google

Why sign up and log in

Guitar Tabs Explorer
Best Coast bass tabs for In my eyes

Bass tabs with lyrics

Best Coast - in My eyes


Intro;
4 bars rest, followed by Verse riff 1x;
G|----------------|----------------|----------------|----------------|
D|----------------|----------------|----------------|----------------|
A|-5--5-5---5-5-5-|-0--0-0---0-0-0-|-2--2-2---2-2-2-|----------------|
E|----------------|----------------|----------------|-2-2-2-2--2-2-2-|
Verse1 (I wake up alone);
Play Verse riff 2x

Post-verse1; play Post-verse riff 1x;
G|----------------|----------------|----------------|----------------|
D|----------------|-7--7-7---7-7-7-|----------------|-4-4-4-4--4-4-4-|
A|-5--5-5---5-5-5-|----------------|-2--2-2---2-2-2-|----------------|
E|----------------|----------------|----------------|----------------|


Verse2 (I talk to you all the time);
Play Verse riff 2x

Post-verse2 (I treated you badly);
play Post-verse riff 1x;


Chorus1 (What hurts the most); play Chorus-riff 1 x;
G|----------------|----------------|----------------|----------------|
D|----------------|----------------|----------------|----------------|
A|-5--5-5---7-7-7-|----------------|-5--5-5---7-7-7-|----------------|
E|----------------|-5---5-5-5-5-5-5|----------------|-5---5-5-5-5-5-5|

G|----------------|----------------|----------------|----------------|
D|----------------|----------------|----------------|----------------|
A|-5--5-5---2-2-2-|----------------|-5--5-5---2-2-2-|----------------|
E|----------------|-5---5-5-5-5-5-5|----------------|-5---5-5-5-5-5-5|

Post-chorus;
play Verse riff 1x

Verse3 (I sit around);
Play Verse riff 2x

Post-verse3 (I treated you badly);
play Post-verse riff 1x;


Chorus2 (What hurts the most); play Chorus-riff 1 x;


Chorus3 (What hurts the most); play Chorus-riff 1 x;


Bridge (I thought you would always be there);
G|----------------|----------------|----------------|----------------|
D|----------------|----------------|----------------|----------------|
A|----------------|----------------|-5--5-5---5-5-5-|-2---2-2--2-2-2-|
E|-0--0-0---0-0-0-|-3--3-3---3-3-3-|----------------|----------------| 2x

G|----------------|----------------|----------------|----------------|
D|----------------|----------------|----------------|----------------|
A|----------------|----------------|-7-7-7-7-7-7-7-7|----------------|
E|-0-0-0-0-0-0-0-0|-0-0-0-0-0-0-0-0|----------------|----------------|

play Verse riff 1x


Chorus4 (What hurts the most); play Chorus-riff 1 x;


Chorus5 (What hurts the most); play Chorus-riff 1 x;


Outro (fading out);
G|----------------|----------------|----------------|----------------|
D|----------------|----------------|----------------|----------------|
A|-5--5-5---2-2-2-|----------------|-5--5-5---2-2-2-|----------------|
E|----------------|-5---5-5-5-5-5-5|----------------|-5---5-5-5-5-5-5| 3x

Almost there ...

Sign in to get your own page with links to favourite songs and more. You are just one click away...

Login with Facebook Login with Google