Log in

One click and you are in

Login with Facebook Login with Google

Why sign up and log in

Guitar Tabs Explorer
Berkeley guitar tabs for One way out

Guitar tabs

Album: Hope, Prayers and Bubblegum
Tabbed by: Paul Fanning

drop d tuning (dadgbe)
Intro: with tremolo and slight delay or reverb

e ---5------------8-------10---------------
b ---6------------6-------8----------------
g ---7------------7-------9----------------
d -----------------------------------------
a -----------------------------------------
A chord diagramD MajorD -----------------------------------------


Verse 1:

e ---5------------8-------10---------------
b ---6------------6-------8----------------
g ---7------------7-------9----------------
d -----------------------------------------
a -----------------------------------------
A chord diagramD MajorD -----------------------------------------


Chorus:

i will...
e ---------------------------------------------
b ---------------------------------------------
g ---------------------------------------------
d ---8----------------3------0-----------------
a ---8----------------3------0-----------------
A chord diagramD MajorD ---8----------------3------0-----------------    x4

e ------------------------------------------
b ------------------------------------------
g ------------------------------------------
d ---5-------------3------0-----------------
a ---5-------------3------0-----------------
A chord diagramD MajorD ---5-------------3------0-----------------


Verse 2: (basically picking of the intro chords)

e ---------------------8-----8/10--10---------
b ---6--5--6-----5--6--6-----6/8---8----------
g ------------7-----------7------------9------
d --------------------------------------------
a --------------------------------------------
A chord diagramD MajorD --------------------------------------------


Chorus

e ---------------------------------------------
b ---------------------------------------------
g ---------------------------------------------
d ---8----------------3------0-----------------
a ---8----------------3------0-----------------
A chord diagramD MajorD ---8----------------3------0-----------------    x4


e ------------------------------------------
b ------------------------------------------
g ------------------------------------------
d ---5-------------3------0-----------------
a ---5-------------3------0-----------------
A chord diagramD MajorD ---5-------------3------0-----------------


Verse 3:

e ---------------------8-----8/10--10---------
b ---6--5--6-----5--6--6-----6/8---8----------
g ------------7-----------7------------9------
d --------------------------------------------
a --------------------------------------------
A chord diagramD MajorD --------------------------------------------


Chorus

e ---------------------------------------------
b ---------------------------------------------
g ---------------------------------------------
d ---8----------------3------0-----------------
a ---8----------------3------0-----------------
A chord diagramD MajorD ---8----------------3------0-----------------    x4


e ------------------------------------------
b ------------------------------------------
g ------------------------------------------
d ---5-------------3------0-----------------
a ---5-------------3------0-----------------
A chord diagramD MajorD ---5-------------3------0-----------------

then

    A chord diagramDmDm
e ---5----------------
b ---6----------------
g ---7----------------
d ---7----------------
a ---5----------------
A chord diagramD MajorD --------------------


outro:

    A chord diagramG+G                A chord diagramBb majorBb      A chord diagramC majorC
e ----------------------------------------------
b ----------------------------------------------
g ----------------------------------------------
d ---3----------------8------10-----------------
a ---3----------------8------10-----------------
A chord diagramD MajorD ---3----------------8------10-----------------

e ----------------------------------------------
b ----------------------------------------------
g ----------------------------------------------
d ---5--5h7p5--5---1----------------------------
a ---5---------5---1----------------------------
A chord diagramD MajorD ---5---------5---1----------------------------


the solo seems to be improv around the 5th and 7th frets ending with

e----------------
b----------------
g---9^11--10^12--
d----------------
a----------------
D----------------

↓ Add and view comments below ↓

What do you think about this song and these tabs?

Add your comments, questions, rant or a thumbs up below.

Almost there ...

Sign in to get your own page with links to favourite songs and more. You are just one click away...

Login with Facebook Login with Google