Log in

One click and you are in

Login with Facebook Login with Google

Why sign up and log in

Guitar Tabs Explorer
Ben&Ben bass tabs for Sa susunod na habang buhay

Sa Susunod Na Habang Buhay bass tab by Ben&Ben

Ben&Ben bass tabs for Sa susunod na habang buhay

Bass tabs

Tuning: Standard (E A D G)


Intro:

G|----7--------7--------7-----7-6--------------------------------------------|
D|5--------4----------------------7-4----------------------------------------|
A|------7--------5--/7-----5-------------------------------------------------|
E|---------------------------------------------------------------------------|

G|----7--------7--------7----------------------------------------------------|
D|5--------4-----------------------------------------------------------------|
A|------7--------5--/7-----5-------------------------------------------------|
E|---------------------------------------------------------------------------|

Verse 1:

G|---------------------------------------------------------------------------|
D|---------------------------------------------------------------------------|
A|----------------7--7---5--5----------------7--7---5--5---------------------|
E|3--3---2--2/-----------------3--3---2--2/----------------------------------|


Pre-Chorus:

G|-----------|
D|-----------|
A|-----------| x3
E|3--3---3--3|


Chorus:

G|---------------------------------------------------------------------------|
D|---------------------------------------------------------------------------|
A|5~---------------------------------9~--------------------------------------|
E|---------------------------------------------------------------------------|

G|---------------------------------------------------------------------------|
D|---------------------------------------------------------------------------|
A|---------------------------------------------------------------------------|
E|7~---------------------------------3~--------------------------------------|

G|-------------------------|
D|-------------------------|
A|-------------------------|
E|0--0--0--0--7--7--7-7-7-7|

Interlude:

G|---------------------------------------------------------------------------|
D|---------------------------------------------------------------------------|
A|5-5-5-5-5-5-5-5-5-5-5-7-7-9-9-9--------------------------------------------|
E|--------------------------------2-2-2-2-2-2-2-2-2-2-2-2-2-2-2-2------------|


Verse 2:

G|---------------------------------------------------------------------------|
D|-----2h4-------2h4-------4h2-----------2-4---------------------------------|
A|------------------------------5--5-5-4-------------------------------------|
E|3--3------2--2------0--0---------------------------------------------------|


Pre-Chorus:

G|---------------------------------------------------------------------------|
D|------------2h4--------------2h4-------------------------------------------|
A|---------------------------------------------------------------------------|
E|3--3---3--3------3--3---3--3-----3--3--3-3-3-3/15-15-15-15\----------------|


Chorus:

G|---------------------------------------------------------------------------|
D|---------------------------------------------------------------------------|
A|5-5-5-5-5-5-5-5-5-5-5-7-7-9-9-9--------------------------------------------|
E|--------------------------------2-2-2-2-2-2-2-2-2-2-2-2-2-2-2-2------------|

G|---------------------------------------------------------------------------|
D|---------------------------------------------------------------------------|
A|----------------------7-7-9-9-9--------------------------------------------|
E|7-7-7-7-7-7-7-7-7-7-7-----------3-3-3-3-3-3-3-3-3-3-3-3-3-3-3-3------------|

G|---------------------------------------------------------------------------|
D|---------------------------------------------------------------------------|
A|---------------------------------------------------------------------------|
E|0-0-0-0-0-0-0-0/7-7-7-7-7-7/14\--------------------------------------------|


Instrumental:

G|---------------------------------------------------------------------------|
D|---------------------------------------------------------------------------|
A|5-5-5-5-5-5-5-5-5-5-5-7-7-9-9-9--------------------------------------------|
E|--------------------------------2-2-2-2-2-2-2-2-2-2-2-2-2-2-2-2------------|

G|---------------------------------------------------------------------------|
D|---------------------------------------------------------------------------|
A|---------------------------------------------------------------------------|
E|7-7-7-7-7-7-7-7-9-9-9-9-9-9-9-9-2-2-2-2-2-2-2-2-3-3-3-3-3-3-3-3------------|


Bridge:

G|---7---------------7----------------7--------------------------------------|
D|5-------5--5----4-------4--4-----------------------------------------------|
A|---------------------------------------------------------------------------|
E|--------------------------------5/7------7--7----3--3---3--3---------------|

G|---------------------------------------------------------------------------|
D|---------------------------------------------------------------------------|
A|---------------------------------------------------------------------------|
E|0--0--0--0/5-5-5-5-5-5/14\-------------------------------------------------|


Chorus:

G|---------------------------------------------------------------------------|
D|---------------------------------------------------------------------------|
A|5-5-5-5-5-5-5-5-5-5-5-7-7-9-9-9--------------------------------------------|
E|--------------------------------2-2-2-2-2-2-2-2-2-2-2-2-2-2-2-2------------|

G|---------------------------------------------------------------------------|
D|---------------------------------------------------------------------------|
A|----------------------7-7-9-9-9--------------------------------------------|
E|7-7-7-7-7-7-7-7-7-7-7-----------3-3-3-3-3-3-3-3-3-3-3-3-3-3-3-3/15---------|


Outro:
Bass comes in "Ikaw Pa Rin...":

G|16/18-16/------------------------------------------------------------------|
D|----------19---------------------------------------------------------------|
A|-----------------------------5---------------------------------------------|
E|---------------------------------------------------------------------------|


************************************

| / Slide up
| \ Slide down
| ~ Let ring
| h Hammer-on

************************************

↓ Add and view comments below ↓

What do you think about this song and these tabs?

Add your comments, questions, rant or a thumbs up below.

Almost there ...

Sign in to get your own page with links to favourite songs and more. You are just one click away...

Login with Facebook Login with Google