Log in

One click and you are in

Login with Facebook Login with Google

Why sign up and log in

Guitar Tabs Explorer
Ben&Ben bass tabs for Ride home

Bass tabs

Tuning: Standard (E A D G)


Intro:

G|------------------------------------|
D|------------------------------------|
A|------------------------------------|
E|3/12\-0-0-7/12-12-12-0-0-7/12-12-12-|
G|---------------------------------|
D|---------------------------------|
A|---------------------------------|
E|0-0-7/12-12-12----0-0-7/12-12-12-|

G|---------------------------------|
D|---------------------------------|
A|---------------------------------|
E|0-0-7/12-12-12----0-0-7/12-12-12-|


Verse 1:

G|---------------------------------------------------------------------------|
D|---------------------------------------------------------------------------|
A|---------------------------------------------------------------------------|
E|5~~~-----------------------------------------------------------------------|


Verse 2:

G|---------------------------------------------------------------------------|
D|---------------------------------------------------------------------------|
A|----------------------------------7~--------------------7~-----------------|
E|5~-----------5~------------------------------------------------------------|

G|---------------------------------------------------------------------------|
D|---------------------------------------------------------------------------|
A|----------------------------------7-7-7------------------------------------|
E|9-9-9--------5-5-5--------------------------------------7-7-7--------------|

G|---------------------------------------------------------------------------|
D|---------------------------------------------------------------------------|
A|----------------------------------7-7-7------------------------------------|
E|9-9-9--------5-5-5--------------------------------------7-7-7--------------|

G|---------------------------------------------------------------------------|
D|---------------------------------------------------------------------------|
A|----------------------------------7/14~------------------------------------|
E|5-5-5--------7-7-7---------------------------------------------------------|



Chorus:

G|---------------------------------------------------------------------------|
D|---------------------------------------------------------------------------|
A|-------------7-7-7---------------------------------------------------------|
E|5-5-5-----------------------------9-9-9-----------------7-7-7--------------|

G|---------------------------------------------------------------------------|
D|---------------------------------------------------------------------------|
A|-------------7-7-7---------------------------------------------------------|
E|5-5-5-----------------------------9-9-9-----------------7-7-7--------------|

Interlude:

G|------------------------------------|
D|------------------------------------|
A|------------------------------------|
E|0-0-7/12-12-12-0-0-7/12-12-12-------|

G|---------------------------------|
D|---------------------------------|
A|---------------------------------|
E|0-0-7/12-12-12----0-0-7/12-12-12-|


Verse 3:

G|---------------------------------------------------------------------------|
D|---------------------------------------------------------------------------|
A|----------------------------------7~--------------------7~-----------------|
E|5~-----------5~------------------------------------------------------------|

G|--------------------------------------9------------------------------------|
D|-----------------7------------------9---------------------9/11\9-----------|
A|---------------7------------------7----------------------9-----------------|
E|9-9-9--------5------------------------------------------7------------------|

G|--------------------------------------9------------------------------------|
D|-----------------7------------------9---------------------9/11\9-----------|
A|---------------7------------------7----------------------9-----------------|
E|9-9-9--------5------------------------------------------7------------------|

G|---------------------------------------------------------------------------|
D|---------------------------------------------------------------------------|
A|----------------------------------7/14~------------------------------------|
E|5-5-5--------7-7-7---------------------------------------------------------|


Chorus:

G|---------------------------------------------------------------------------|
D|------------------------------------------------------------9--------------|
A|-------------7-7-7--7-------------------------------------9---9------------|
E|5-5-5--5-------------------------9-9-9--9-9-------------7-------7----------|

G|---------------------------------------------------------------------------|
D|---------------------------------------------------------------------------|
A|-------------7-7-7--7------------------------------------------------------|
E|5-5-5--5-------------------------9-9-9--9-9-------------7-7-7-7--7-7-------|


Instrumental:

G|---------------------------------------------------------------------------|
D|---------------------------------------------------------------------------|
A|---------------------------------------------------------------------------|
E|0-0-2-2--3--3-3-3-3-3-3-3--3-3--2-2--0--0-0-0-0-0-0-0----------------------|

G|---------------------------------------------------------------------------|
D|---------------------------------------------------------------------------|
A|---------------------------------------------------------------------------|
E|0-0-2-2--3--3-3-3-3-3-3-3--3-3--2-2--0--0-0-0-0-0-0-0----------------------|


Bridge:

G|---------------------------------------------------------------------------|
D|-------------------------------------9-------------------------------------|
A|-----------------------------------9---9----------------9-9--7-7-7---------|
E|5-5-5--5-----9-9-9--9-9----------7------7-7--------------------------------|

G|---------------------------------------------------------------------------|
D|-------------------------------------9-------------------------------------|
A|-----------------------------------9---9----------------9-9--7-7-7---------|
E|5-5-5--5-----9-9-9--9-9----------7------7-7--------------------------------|

G|---------------------------------------------------------------------------|
D|-------------------------------------9-------------------------------------|
A|-----------------------------------9---9----------------9-9--7-7-7---------|
E|5-5-5--5-----9-9-9--9-9----------7------7-7--------------------------------|

G|---------------------------------------------------------------------------|
D|-------------------------------------9-------------------------------------|
A|-----------------------------------9---9----------------9-9--7-7-7---------|
E|5-5-5--5-----9-9-9--9-9----------7------7-7--------------------------------|


G|---------------7-----------------------------------------------------------|
D|-------------7-------------------------------------------------------------|
A|5--------------------------------/12-----------------------12--------------|
E|--------------------------------------------------------12-----------------|

G|---------------7/9\7-------------------------------------------------------|
D|-------------7-------------------------------------------------------------|
A|5--------------------------------/12-----------------------12--------------|
E|--------------------------------------------------------12-----------------|

G|----7---------------7------------------------------------------------------|
D|--7---7-----------7---7----------------------------------------------------|
A|5-------5-------5-------5--------/12-12-12-----------------12-12-12--------|
E|--------------5-----------------------------------------12-----------------|

G|----7---------------7------------------------------------------------------|
D|--7---7-----------7---7----------------------------------------------------|
A|5-------5-------5-------5--------/12-12-12-12-12-12-12\--------------------|
E|--------------5------------------------------------------------------------|


Chorus:

G|---------------------------------------------------------------------------|
D|------------------------------------------------------------9--------------|
A|-------------7-7-7--7-------------------------------------9---9------------|
E|5-5-5--5-------------------------9-9-9--9-9-------------7-------7----------|


G|---------------------------------------------------------------------------|
D|---------------------------------------------------------------------------|
A|-------------7-7-7--7------------------------------------------------------|
E|5-5-5--5-------------------------9-9-9--9-9-------------7-7-7-7--7-7-------|

G|---------------------------------------------------------------------------|
D|---------------------------------------------------------------------------|
A|-------------7-7-7--7------------------------------------------------------|
E|5-5-5--5-------------------------9-9-9--9-9-------------7-7-7-7--7-7-------|

G|---------------------------------------------------------------------------|
D|---------------------------------------------------------------------------|
A|-------------7-7-7--7------------------------------------------------------|
E|5-5-5--5-------------------------9-9-9--9-9---------10-10-10-10-10-10-10-10|


Outro:

G|---------------------------------|
D|---------------------------------|
A|---------------------------------|
E|0-0-7/12-12-12----0-0-7/12-12-12-|

G|---------------------------------|
D|---------------------------------|
A|---------------------------------|
E|0-0-7/12-12-12----0-0-7/12-12-12-|

G|----------------------------------------------------------------------------|
D|----------------------------------------------------------------------------|
A|----------------------------------------------------------------------------|
E|0-0-7/12-12-12----0-0-7/12-12-12--10-10-10-10-10-10/---12-------------------|

(If Possible, Do a Natural Harmonic on the Last Note, it sounds better)


************************************
| /  Slide up
| \  Slide down
| ~  Let Ring
************************************

↓ Add and view comments below ↓

What do you think about this song and these tabs?

Add your comments, questions, rant or a thumbs up below.

Almost there ...

Sign in to get your own page with links to favourite songs and more. You are just one click away...

Login with Facebook Login with Google