Log in

One click and you are in

Login with Facebook Login with Google

Why sign up and log in

Guitar Tabs Explorer
Ben&Ben bass tabs for Pagtingin

Bass tabs with lyrics

Tuning: Standard (E A D G)

Key: G

Difficulty: Advanced

*Do note that the timestamps are based on the official audio of the song.

 Intro/Verse: 0:00
 "Dami pang gustong..."  "Ngunit huwag na..."   "Hintayin na lang..."  "Tangayin ng salita"
G|------------------------|------------------------|------------------------|------------------------|
D|------------------------|------------------------|------------------------|------------------------|
A|------------------------|------------------------|------------------------|-----------------------/|
E|3----3-3----5-----------|3----3-3----5-----------|3----3-3----5-----------|3----3-3----5-----------|
 Pre-Chorus: 0:22
 "Huwag mo akong sisihin" "Mahirap ang tumaya"   "Dagat isi-sisi rin"   "Kahit walang mapala"
G|------------------------|------------------------|--------------------8/9-|------------------------|
D|------------------------|------------------------|------------------------|------------------------|
A|10\-------5\------------|--------5------9--7--5--|----------5\------------|----------5---0--5-5----|
E|------------------------|3\----------------------|3\----------------------|3-----------------------|


 Chorus: 0:42
 "Pakilahad ang damdamin" "Sana di magbago..."   "Aminin ang mga lihim"  "Sana di magbago ang pagtingin"
G|------------------------|------------------------|------------------------|------------------------|
D|------------------------|------------------------|------------------------|------------------------|
A|------------5--5--5-5---|------------------------|------------5--5--5-5---|------------------------|
E|3--3--3-3---------------|7--7--7-7---5--5--5-5---|3--3--3-3---------------|7--7--7-7---5--5--5-5---|


 Verse: 1:03
      "Bakit laging ganito"   "Kailangang magkailangan, ako ay nalilito"
G|------------------------|------------------------|------------------------|------------------------|
D|------------------------|----------5-0-----------|------------------------|------------------------|
A|------------------------|------5-----------------|------------------------|------------------------|
E|3----3-3----5-----------|3---3---5------5--------|3----3-3----5-----------|3----3-3----5-------5/10|

 Pre-Chorus: 1:23
 "Huwag mo akong sisihin" "Mahirap ang tumaya"   "Dagat ay isi-sisi rin" "Kahit walang mapala"
G|------------------------|------------------------|--------------------8/9-|------------------------|
D|------------------------|------------------------|------------------------|------------------------|
A|10\-------5\------------|--------5------9--7--5--|----------5\------------|----------5---0--5-5----|
E|------------------------|3\----------------------|3\----------------------|3-----------------------|


 Chorus: 1:43
 "Pakilahad ang damdamin" "Sana di magbago..."   "Aminin ang mga lihim"  "Sana di magbago ang pagtingin"
G|------------------------|------------------------|------------------------|------------------------|
D|------------------------|------------------------|------------------------|------------------------|
A|------------5--5--5-5---|------------------------|------------5--5--5-5---|------------------------|
E|3--3--3-3---------------|7--7--7-7---5--5--5-5---|3--3--3-3---------------|7--7--7-7---5--5--5-5---|

 "Pahiwatig"           "Sana di magbago ang tingin"
G|--------------------------------|------------------------------|
D|--------------------------------|------------------------------|
A|----------------5-5-5-5-5-5-5-5-|------------------------------|
E|3-3-3-3-3-3-3-3-----------------|7-7-7-7-7-7-7-5-5-5-5-5-5-5-5-|

 "Pahiwatig"           "Sana di magbago ang tingin"
G|--------------------------------|-------------------------------|
D|--------------------------------|-------------------------------|
A|----------------5-5-5-5-5-5-5-5-|------------------------------/|
E|3-3-3-3-3-3-3-3-----------------|7-7-7-7-7-7-7-5-5-5-5-5-5-5-5--|


 Bridge: 2:24
 "Iibig lang kapag handa na, Hindi na lang kung trip-trip lang naman"
G|------------------------|------------------------|
D|------------------------|------------------------|
A|10----------------------|------------------------|
E|------------------------|----------------------3/|

 "Iibig lang kapag handa na, Hindi na lang kung trip-trip lang naman"
G|------------------------|-----------------------------------|
G|------------------------|-----------------------------------|
G|12--------7------------/|12--12--12--12--7-7-7-7-7-7-7--/12-|
G|------------------------|-----------------------------------|


 Chorus/Outro: 2:44
 "Pakilahad ang damdamin" "Sana di magbago..."   "Aminin ang mga lihim"  "Sana di magbago ang pagtingin"
G|------------------------|------------------------|------------------------|------------------------|
D|------------------------|------------------------|------------------------|------------------------|
A|------------7--7--7-7---|------------------------|------------7--7--7-7---|------------------------|
E|5--5--5-5---------------|9--9--9-9---7--7--7-7---|5--5--5-5---------------|9--9--9-9---7--7--7-7---|

 "Subukan nang manalangin, Sana di magbago..."   "Baka bukas, ika'y akin, Sana di magbago ang tingin"
G|------------------------|------------------------|------------------------|------------------------|
D|------------------------|------------------------|------------------------|------------------------|
A|------------7--7--7-7---|------------------------|------------7--7--7-7---|------------------------|
E|5--5--5-5---------------|9--9--9-9---7--7--7-7---|5--5--5-5---------------|9--9--9-9---7--7--7-7---|

 "Pahiwatig"          "Sana di magbago ang tingin"
G|-----------------------------|-------------------------|
D|-----------------------------|-------------------------|
A|------------7--7--7--0-7-0---|-------------------------|
E|5--5--5--5-------------------|9--9--9--9--7--7--7--7---|

 "Pahiwatig"         "Sana di magbago ang tingin"
G|-----------------------------|------------------------|
D|-----------------------------|------------------------|
A|------------7--7--7--0-7-0---|------------------------|
E|5--5--5--5-------------------|9--9-9-9-9-9-9--7-------|

************************************
 / slide up
 \ dlide down
************************************

↓ Add and view comments below ↓

What do you think about this song and these tabs?

Add your comments, questions, rant or a thumbs up below.

Almost there ...

Sign in to get your own page with links to favourite songs and more. You are just one click away...

Login with Facebook Login with Google