Log in

One click and you are in

Login with Facebook Login with Google

Why sign up and log in

Guitar Tabs Explorer
Ben&Ben bass tabs for Kathang isip

Bass tabs

Tuning: Standard (E A D G)

Key: Bb

Difficulty: Intermediate
Intro:

G|-------------------------------------------------10--12---14---14-15-------|
D|---------------------------------------------------------------------------|
A|---------------------------------------------------------------------------|
E|---------------------------------------------------------------------------|


Verse 1:

G|---------------------------------------------------------------------------|
D|---------------------------------------------------------------------------|
A|---------------------------------------------------------------------------|
E|---------------------------------------------------------------------------|


Pre-Chorus:

G|---------------------------------------------------------------------------|
D|-----------------------------------------------------------------3/5-------|
A|3-------------------1~-----------------------------------------------------|
E|-------------------1----------------------------------------------------3--|

G|-------------------------------------------------------3--3----------------|
D|----------5/7-3----------------------------------------------3-------------|
A|3-------------------1~--------------------------------------------1--------|
E|------------------------------------------------------------------------3--|

G|---------------------------------------------------------------------------|
D|------------3-5-3----------------------------------------------------------|
A|3-------------------1~-----------------------1/3---------------------------|
E|----------------------------------------------------3-----3----------------|

G|---------------------------------------------------------------------------|
D|---------------------------------------------------------------------------|
A|3----3------5----5---------6-------6----------8-------------------------11-|
E|----------5--------------6------------------8-----------8\1---1------------|


Chorus 1:

G|---------------------------------------------------------------------------|
D|-----------------------------------11/13---------------13h15------------15\|
A|13---------------11--------------------------------------------------------|
E|---------------------------------------------------------------------------|

G|---------------------------------------------------------------------------|
D|17---------------15-------------------13-----------------------------------|
A|------------------------------------------------------------------------11\|
E|---------------------------------------------------------------------------|

G|---------------------------------------------------------------------------|
D|--------------------------------------13---------------13--15-----------15\|
A|13---------------11--------------------------------------------------------|
E|---------------------------------------------------------------------------|

G|---------------------------------------------------------------------------|
D|17---------------15-------------------13-----------------------------------|
A|-----------------------------------------------13----------------15\3------|
E|--------------------------------------------------11------------------3----|


Instrumental:

G|---------------------------------------------------------------------------|
D|--------------------------------------------------------------3------------|
A|3------3----------3----3-------3/5--------------------------3-----3--------|
E|----------------3------------------3----3-----------1---1------------1\3---|

G|---------------------------------------------------------------------------|
D|------------------3----3-------3h5------------------7-----8-------7--------|
A|3------3--------3---------------------------------------------------8------|
E|-----------------------------------3----3-------------------------------6--|


Verse 2:

G|--------------10----8-----7\8---7------------------------------------------|
D|-----------10---------------------8--------------8---------8\10--8---------|
A|6----------------------------------------------8---------8---------8-------|
E|----------------------------------------6-----------------------------6----|

G|---------------------------------------------------------------------------|
D|---------------------------------------------------------------------------|
A|6-------------6-------6---6\8------------------------------------8---------|
E|------------6-------6---6---------------6--------6-------6-7-0-6------6----|

G|---------------------------------------------------------------------------|
D|---------------------------------------------------------------------------|
A|6-------------6-------6---6\10/8-------------------------------------------|
E|--------------------6---6---------------6---6----3-------1-3-------3\5-----|

G|---------------------------------------------------------------------------|
D|---------------------------------------------------------------------------|
A|3---3-----3----5----5--------5----6-----6-----8----------------15/6--------|
E|--------3----5-------------5----6---------6-8--------8/1---1---------0-----|


Chorus 2:

G|---------------------------------------------------------------------------|
D|---------------------------------------------------------------------------|
A|6-------6---------------------6--------------6--------6----6\8-------------|
E|----------4------4-----4\6--------------------------6---6--------------10--|

G|---------------------------------------------------------------------------|
D|---------------------------------------------8-------------8h10--8---------|
A|10----10----10----8-------8\10------6----------6-----8\10-----------10--8--|
E|----------------8-------8---------6----------------------------------------|

G|---------------------------------------------------------------------------|
D|---------------------------------------------------------------------------|
A|----------------------------6-------6---------6-----6\8--------------------|
E|6------6--------4--4----4\6-----------------6---6----------------10--------|

G|---------------------------------------------------------------------------|
D|--------------10\12-10-----------------------------------------------------|
A|10-----10--------------12--10--8-------8--------6-6-6----6-------6---6-----|
E|-------------------------------------8-------6----------6------6---6-------|


Bridge:

G|---------------------------------------------------------------------------|
D|---------------------------------------------------------------------------|
A|8--------8---------8-8------8---8-10-----------------8\10-10-8-------------|
E|-------8-------8----------8---8-------8-----8---8--8------------10--8------|

G|---------------------------------------------------------------------------|
D|--------------------10-10-10-10--------------------------------------------|
A|8--------8-----8----------------10-10-------------10-12----15/3------------|
E|--------------------------------------8-----8-8----------------------------|

G|---------------------------------------------------------------------------|
D|---------------------------------------------------------------------------|
A|8---------------8--8------8-10----3--------5------6---------8--------------|
E|--------------8---------8-------3--------5------6---------8----------------|

G|---------------------------------------------------------------------------|
D|--------10----------------------------------------------------8\10---------|
A|10---------------8----------------------------------8------8---------------|
E|--------------0-----6-------0---6-----0-----6----6\8-----------------------|

G|---------------------------------------------------------------------------|
D|---------------------------------------------------------------------------|
A|10---------10---10------6---------6--8--------------8---------8\10---------|
E|--------10------------6--------6------------6----6/8-------8---------------|

G|--------------------------------------------10----12-----------------------|
D|------------------------------------8\10-----------------------------------|
A|6-------6-----6---------6---6---8------------------------------------------|
E|------------6---------6---6------------------------------------------------|


Outro:

G|---------------------------------------------------------------------------|
D|---------------------------------------------------------------------------|
A|---------------------------------------------------------------------------|
E|---------------------------------------------------------------------------|

G|---------------------------------------------------------------------------|
D|---------------------------------------------------------------------------|
A|---------------------------------------------------------------------------|
E|---------------------------------------------------------------------------|

G|---------------------------------------------------------------------------|
D|---------------------------------------------------------------------------|
A|---------------------------------------------------------------------------|
E|6~-------------------------------------------------------------------------|

************************************

| h  Hammer-on
| p  Pull-off
| /  Slide up
| \  Slide down
| ~  Let Ring

************************************

↓ Add and view comments below ↓

What do you think about this song and these tabs?

Add your comments, questions, rant or a thumbs up below.

Almost there ...

Sign in to get your own page with links to favourite songs and more. You are just one click away...

Login with Facebook Login with Google