Log in

One click and you are in

Login with Facebook Login with Google

Why sign up and log in

Guitar Tabs Explorer
Ben&Ben bass tabs for Araw - araw

Bass tabs

Tuning: Standard (E A D G)


Intro:

G|---------------------------------------------------------------------------|
D|---------------------------------------------------------------------------|
A|---7-2-2-2-2/14------------------------------------------------------------|
E|2~/------------------------------------------------------------------------|
Verse 1:

G|---------------------------------------------------------------------------|
D|-----------------------------2-4-------------------------------------------|
A|-------7--7-7\2--2-2--2--2-2-----------------------------------------------|
E|2--2-2---------------------------------------------------------------------|

G|---------------------------------------------------------------------------|
D|---------------------------------4-4-2--2-2--------------------------------|
A|-------7--7-7/2--2-2--2--2-2-4-4-------------------------------------------|
E|2--2-2---------------------------------------------------------------------|

G|---------------------------------------------------------------------------|
D|-----------------------------2-4-------------------------------------------|
A|-------7--7-7\2--2-2--2--2-2-----------------------------------------------|
E|2--2-2---------------------------------------------------------------------|

G|---------------------------------------------------------------------------|
D|---------------------------------4-4-2--2-2--------------------------------|
A|-------7--7-7/2--2-2--2--2-2-4-4------------2-2-2-2------------------------|
E|2--2-2---------------------------------------------------------------------|


Chorus:

G|---------------------------------------------------------------------------|
D|----------------------------------------------2-4--------------------------|
A|-------------------7-7-7-7-7-7-7-7-2-2-2-2-2-2-------2-2-2-2-2-2-2-2-------|
E|17/2-2-2-2-2-2-2-2---------------------------------------------------------|

G|---------------------------------------------------------------------------|
D|-----------------------------------------------2-4-------------------------|
A|----------------7-7-7-7-7-7-7-7-2-2-2-2-2-2--------------------------------|
E|2-2-2-2-2-2-2-2------------------------------------------------------------|


Verse 2:

G|---------------------------------------------------------------------------|
D|-----------------------------2-4-------------------------------------------|
A|-------7--7-7\2--2-2--2--2-2-----------------------------------------------|
E|2--2-2---------------------------------------------------------------------|

G|---------------------------------------------------------------------------|
D|---------------------------------4-4-2--2-2--------------------------------|
A|-------7--7-7/2--2-2--2--2-2-4-4-------------------------------------------|
E|2--2-2---------------------------------------------------------------------|

G|---------------------------------------------------------------------------|
D|-----------------------------2-4-------------------------------------------|
A|-------7--7-7\2--2-2--2--2-2-----------------------------------------------|
E|2--2-2---------------------------------------------------------------------|

G|---------------------------------------------------------------------------|
D|---------------------------------4-4-2--2-2--------------------------------|
A|-------7--7-7/2--2-2--2--2-2-4-4------------2-2-2-2------------------------|
E|2--2-2---------------------------------------------------------------------|


Chorus:

G|---------------------------------------------------------------------------|
D|----------------------------------------------2-4--------------------------|
A|-------------------7-7-7-7-7-7-7-7-2-2-2-2-2-2-------2-2-2-2-2-2-2-2-------|
E|17/2-2-2-2-2-2-2-2---------------------------------------------------------|

G|---------------------------------------------------------------------------|
D|-------------------------------------------2-4-----------------------------|
A|----------------7-7-7-7-7-7-7-7-2-2-2-2-2-2--------------------------------|
E|2-2-2-2-2-2-2-2------------------------------------------------------------|


Bridge:

G|---------------------------------------------------------------------------|
D|---------------------------------------------------------------------------|
A|------12--12-12\7-7-7-7-5-5-5-5-12-12-12-12-7-7-7-7-------12-12-12-12------|
E|5-5-5/---------------------------------------------5-5-5-5-----------------|

G|-------------------------------------------------11--11--11--11-13---------|
D|-----------------------------------------13-11-13--13--13--13-----13-11----|
A|7-7-7-7-------12-12-12-12-7-7-7-7-7-7-7-7----------------------------------|
E|-------5-5-5-5-------------------------------------------------------------|

G|---------------------------------------------------------------------------|
D|7~-2-2-2-4-4-4-------------------------------------------------------------|
A|--------------2-2-2-2-2-2-2-2-14-14-14-14-14-14-14-14----------------------|
E|---------------------------------------------------------------------------|


Solo:

G|---------------------------------------------------------------------------|
D|---------------------------------------------------------------------------|
A|-------------------7-7-7-7-7-7-7-7-----------------------------------------|
E|2-2-2-2-2-2-2-2-------------------4-4-4-4-6-6-6-6-7-7-7-7-7-7-7-7----------|




Chorus:

G|---------------------------------------------------------------------------|
D|-------------------------------------------2-4-----------------------------|
A|------------------7-7-7-7-7-7-7-2-2-2-2-2-2---2-2-2-2-2-2-2-2--------------|
E|17\2-2-2-2-2-2-2-2---------------------------------------------------------|

G|---------------------------------------------------------------------------|
D|---------------------------------------------------------16----------------|
A|---------------7-7-7-7-7-7-7-7-14-14-14-14-16-16-16-16-18--14-14-14-14-----|
E|2-2-2-2-2-2-2-2------------------------------------------------------------|

G|---------------------------------------------------------------------------|
D|-------------------------------------------2-4-----------------------------|
A|------------------7-7-7-7-7-7-7-2-2-2-2-2-2---2-2-2-2-2-2-2-2--------------|
E|2-2-2-2-2-2-2-2-2----------------------------------------------------------|

G|---------------------------------------------------------------------------|
D|---------------------------------------------------------------------------|
A|-----------------7~-2-2-2-2-2-2-2-2----------------------------------------|
E|2-2-2-2-2-2-2-2-2----------------------------------------------------------|


************************************

| / Slide up
| \ Slide down
| ~ Vibrato

************************************

↓ Add and view comments below ↓

What do you think about this song and these tabs?

Add your comments, questions, rant or a thumbs up below.

Almost there ...

Sign in to get your own page with links to favourite songs and more. You are just one click away...

Login with Facebook Login with Google