Log in

One click and you are in

Login with Facebook Login with Google

Why sign up and log in

Guitar Tabs Explorer
Ben Platt guitar tabs for Grow as we go

Guitar tabs

Tuning: Standard (E A D G B E)


Intro:

    A chord diagramC majorC                           A chord diagramA minorAm                        A chord diagramFF
e|----------------------------------------------------------0------0------0-----|
B|---1------1------1-------------1------1------1--------------1------1------1---|
G|-----0------0------0-------------2------2------2------------------------------|
D|--------------------------------------------------------3------3------3-------|
A|-3------3------3---------2---0------0------0----------------------------------|
E|--------------------------------------------------3--0------------------------|
   A chord diagramG MajorG
e|---3-------3-------3----------------------------------------------------------|
B|-----0-------0-------0--------------------------------------------------------|
G|------------------------------------------------------------------------------|
D|------------------------------------------------------------------------------|
A|-2-------2-------2------------------------------------------------------------|
E|-3-------3-------3------------------------------------------------------------|


Verse 1:

You say there's so much you don’t know...
  A chord diagramC majorC                           A chord diagramA minorAm                        A chord diagramFF
e|----------------------------------------------------------0------0------0-----|
B|---1------1------1-------------1------1------1--------------1------1------1---|
G|-----0------0------0-------------2------2------2------------------------------|
D|--------------------------------------------------------3------3------3-------|
A|-3------3------3---------2---0------0------0----------------------------------|
E|--------------------------------------------------3--0------------------------|
   A chord diagramG MajorG
e|---3-------3-------3----------------------------------------------------------|
B|-----0-------0-------0--------------------------------------------------------|
G|------------------------------------------------------------------------------|
D|------------------------------------------------------------------------------|
A|-2-------2-------2------------------------------------------------------------|
E|-3-------3-------3------------------------------------------------------------|

You say you'd rather be alone...
    A chord diagramC majorC                           A chord diagramA minorAm                        A chord diagramFF
e|----------------------------------------------------------0------0------0-----|
B|---1------1------1-------------1------1------1--------------1------1------1---|
G|-----0------0------0-------------2------2------2------------------------------|
D|--------------------------------------------------------3------3------3-------|
A|-3------3------3---------2---0------0------0----------------------------------|
E|--------------------------------------------------3--0------------------------|
   A chord diagramG MajorG
e|---3-------3-------3----------------------------------------------------------|
B|-----0-------0-------0--------------------------------------------------------|
G|------------------------------------------------------------------------------|
D|------------------------------------------------------------------------------|
A|-2-------2-------2------------------------------------------------------------|
E|-3-------3-------3------------------------------------------------------------|


Pre-Chorus:

Ooo, who said it's true...
   A chord diagramFF                     A chord diagramG MajorG                        A chord diagramC majorC            A chord diagramA minorAm
e|---0------0------0-------3-------3-------3---------------------------------------|
B|-----1------1------1-------0-------0-------0------1------------1------1-----1----|
G|----------------------------------------------------0------------2------2-----2--|
D|-3------3------3-----------------------------------------------------------------|
A|-----------------------2-------2-------2--------3------3--2--0------0------0-----|
E|-----------------------3-------3-------3-----------------------------------------|
   A chord diagramFF                     A chord diagramF minorFm
e|---0------0------0------0--------------------------------------------------------|
B|-----1------1------1----1--------------------------------------------------------|
G|------------------------1--------------------------------------------------------|
D|-3------3------3--------3--------------------------------------------------------|
A|------------------------0--------------------------------------------------------|
E|------------------------0--------------------------------------------------------|


Chorus:

I don't think you have to leave...
    A chord diagramC majorC                           A chord diagramA minorAm                        A chord diagramFF
e|----------------------------------------------------------0------0------0-----|
B|---1------1------1-------------1------1------1--------------1------1------1---|
G|-----0------0------0-------------2------2------2------------------------------|
D|--------------------------------------------------------3------3------3-------|
A|-3------3------3---------2---0------0------0----------------------------------|
E|--------------------------------------------------3--0------------------------|
   A chord diagramG MajorG
e|---3-------3-------3----------------------------------------------------------|
B|-----0-------0-------0--------------------------------------------------------|
G|------------------------------------------------------------------------------|
D|------------------------------------------------------------------------------|
A|-2-------2-------2------------------------------------------------------------|
E|-3-------3-------3------------------------------------------------------------|

When you're high, I'll take the lows...
    A chord diagramC majorC                           A chord diagramA minorAm                        A chord diagramFF
e|----------------------------------------------------------0------0------0-----|
B|---1------1------1-------------1------1------1--------------1------1------1---|
G|-----0------0------0-------------2------2------2------------------------------|
D|--------------------------------------------------------3------3------3-------|
A|-3------3------3---------2---0------0------0----------------------------------|
E|--------------------------------------------------3--0------------------------|
   A chord diagramG MajorG
e|---3-------3-------3----------------------------------------------------------|
B|-----0-------0-------0--------------------------------------------------------|
G|------------------------------------------------------------------------------|
D|------------------------------------------------------------------------------|
A|-2-------2-------2------------------------------------------------------------|
E|-3-------3-------3------------------------------------------------------------|

And grow as we go...
    A chord diagramC majorC                           A chord diagramA minorAm                        A chord diagramFF
e|----------------------------------------------------------0------0------0-----|
B|---1------1------1-------------1------1------1--------------1------1------1---|
G|-----0------0------0-------------2------2------2------------------------------|
D|--------------------------------------------------------3------3------3-------|
A|-3------3------3---------2---0------0------0----------------------------------|
E|--------------------------------------------------3--0------------------------|
   A chord diagramG MajorG
e|---3-------3-------3----------------------------------------------------------|
B|-----0-------0-------0--------------------------------------------------------|
G|------------------------------------------------------------------------------|
D|------------------------------------------------------------------------------|
A|-2-------2-------2------------------------------------------------------------|
E|-3-------3-------3------------------------------------------------------------|


Verse 2:

You won't be the only one...
    A chord diagramC majorC                           A chord diagramA minorAm                        A chord diagramFF
e|----------------------------------------------------------0------0------0-----|
B|---1------1------1-------------1------1------1--------------1------1------1---|
G|-----0------0------0-------------2------2------2------------------------------|
D|--------------------------------------------------------3------3------3-------|
A|-3------3------3---------2---0------0------0----------------------------------|
E|--------------------------------------------------3--0------------------------|
   A chord diagramG MajorG
e|---3-------3-------3----------------------------------------------------------|
B|-----0-------0-------0--------------------------------------------------------|
G|------------------------------------------------------------------------------|
D|------------------------------------------------------------------------------|
A|-2-------2-------2------------------------------------------------------------|
E|-3-------3-------3------------------------------------------------------------|

I don’t know how this river runs...
    A chord diagramC majorC                           A chord diagramA minorAm                        A chord diagramFF
e|----------------------------------------------------------0------0------0-----|
B|---1------1------1-------------1------1------1--------------1------1------1---|
G|-----0------0------0-------------2------2------2------------------------------|
D|--------------------------------------------------------3------3------3-------|
A|-3------3------3---------2---0------0------0----------------------------------|
E|--------------------------------------------------3--0------------------------|
   A chord diagramG MajorG
e|---3-------3-------3----------------------------------------------------------|
B|-----0-------0-------0--------------------------------------------------------|
G|------------------------------------------------------------------------------|
D|------------------------------------------------------------------------------|
A|-2-------2-------2------------------------------------------------------------|
E|-3-------3-------3------------------------------------------------------------|


Pre-Chorus:

Ooo, who said it's true...
  A chord diagramFF                     A chord diagramG MajorG                        A chord diagramC majorC            A chord diagramA minorAm
e|---0------0------0-------3-------3-------3---------------------------------------|
B|-----1------1------1-------0-------0-------0------1------------1------1-----1----|
G|----------------------------------------------------0------------2------2-----2--|
D|-3------3------3-----------------------------------------------------------------|
A|-----------------------2-------2-------2--------3------3--2--0------0------0-----|
E|-----------------------3-------3-------3-----------------------------------------|
   A chord diagramFF                     A chord diagramF minorFm
e|---0------0------0------0--------------------------------------------------------|
B|-----1------1------1----1--------------------------------------------------------|
G|------------------------1--------------------------------------------------------|
D|-3------3------3--------3--------------------------------------------------------|
A|------------------------0--------------------------------------------------------|
E|------------------------0--------------------------------------------------------|


Chorus:

You don't ever have to leave...
    A chord diagramC majorC                           A chord diagramA minorAm                        A chord diagramFF
e|----------------------------------------------------------0------0------0-----|
B|---1------1------1-------------1------1------1--------------1------1------1---|
G|-----0------0------0-------------2------2------2------------------------------|
D|--------------------------------------------------------3------3------3-------|
A|-3------3------3---------2---0------0------0----------------------------------|
E|--------------------------------------------------3--0------------------------|
   A chord diagramG MajorG
e|---3-------3-------3----------------------------------------------------------|
B|-----0-------0-------0--------------------------------------------------------|
G|------------------------------------------------------------------------------|
D|------------------------------------------------------------------------------|
A|-2-------2-------2------------------------------------------------------------|
E|-3-------3-------3------------------------------------------------------------|

When you're high, I’ll take the lows...
    A chord diagramC majorC                           A chord diagramA minorAm                        A chord diagramFF
e|----------------------------------------------------------0------0------0-----|
B|---1------1------1-------------1------1------1--------------1------1------1---|
G|-----0------0------0-------------2------2------2------------------------------|
D|--------------------------------------------------------3------3------3-------|
A|-3------3------3---------2---0------0------0----------------------------------|
E|--------------------------------------------------3--0------------------------|
   A chord diagramG MajorG
e|---3-------3-------3----------------------------------------------------------|
B|-----0-------0-------0--------------------------------------------------------|
G|------------------------------------------------------------------------------|
D|------------------------------------------------------------------------------|
A|-2-------2-------2------------------------------------------------------------|
E|-3-------3-------3------------------------------------------------------------|

And grow as we go...
    A chord diagramC majorC                           A chord diagramA minorAm                        A chord diagramFF
e|----------------------------------------------------------0------0------0-----|
B|---1------1------1-------------1------1------1--------------1------1------1---|
G|-----0------0------0-------------2------2------2------------------------------|
D|--------------------------------------------------------3------3------3-------|
A|-3------3------3---------2---0------0------0----------------------------------|
E|--------------------------------------------------3--0------------------------|
   A chord diagramG MajorG
e|---3-------3-------3----------------------------------------------------------|
B|-----0-------0-------0--------------------------------------------------------|
G|------------------------------------------------------------------------------|
D|------------------------------------------------------------------------------|
A|-2-------2-------2------------------------------------------------------------|
E|-3-------3-------3------------------------------------------------------------|

Grow as we go...
    A chord diagramC majorC                           A chord diagramA minorAm                        A chord diagramFF
e|----------------------------------------------------------0------0------0-----|
B|---1------1------1-------------1------1------1--------------1------1------1---|
G|-----0------0------0-------------2------2------2------------------------------|
D|--------------------------------------------------------3------3------3-------|
A|-3------3------3---------2---0------0------0----------------------------------|
E|--------------------------------------------------3--0------------------------|
   A chord diagramG MajorG
e|---3-------3-------3----------------------------------------------------------|
B|-----0-------0-------0--------------------------------------------------------|
G|------------------------------------------------------------------------------|
D|------------------------------------------------------------------------------|
A|-2-------2-------2------------------------------------------------------------|
E|-3-------3-------3------------------------------------------------------------|


Bridge:

I don't know who we'll become...
 A chord diagramE MajorE                             A chord diagramA minorAm                         A chord diagramFF                           A chord diagramC majorC
e|-----------------------------------------------------------0------0------0------0--------------------------|
B|---0------0------0------0------1------1------1------1--------1------1------1------1----1-----1-----1----1--|
G|-----1------1------1------1------2------2------2------2----------------------------------0-----0-----0----0|
D|----------------------------------------------------------3------3------3-----3----------------------------|
A|-2------2------2------2-------0------0------0------0----------------------------------3-----3-----3----3---|
E|-----------------------------------------------------------------------------------------------------------|

   A chord diagramE MajorE                             A chord diagramA minorAm                         A chord diagramFF                             A chord diagramC majorC
e|-----------------------------------------------------------0------0------0------0-------0------|
B|---0------0------0------0------1------1------1------1--------1------1------1------1-----1------|
G|-----1------1------1------1------2------2------2------2---------------------------------2------|
D|----------------------------------------------------------3------3------3-----3---------0------|
A|-2------2------2------2-------0------0------0------0------------------------------------3------|
E|-----------------------------------------------------------------------------------------------|


Chorus:

Tell me you don't wanna leave...
   A chord diagramC majorC              A chord diagramA minorAm               A chord diagramFF           A chord diagramG MajorG
e|-0----------0----0----------0----0-----------3---------------------|
B|-1----------1----1----------0----1-----------0---------------------|
G|-0----------0----2----------0----2-----------0---------------------|
D|-2----------0----2----------0----3-----------0---------------------|
A|-3----------2----0----------2----------------2---------------------|
E|----------------------------3----------------3---------------------|

    A chord diagramC majorC                           A chord diagramA minorAm                        A chord diagramFF
e|----------------------------------------------------------0------0------0-----|
B|---1------1------1-------------1------1------1--------------1------1------1---|
G|-----0------0------0-------------2------2------2------------------------------|
D|--------------------------------------------------------3------3------3-------|
A|-3------3------3---------2---0------0------0----------------------------------|
E|--------------------------------------------------3--0------------------------|
   A chord diagramG MajorG
e|---3-------3-------3----------------------------------------------------------|
B|-----0-------0-------0--------------------------------------------------------|
G|------------------------------------------------------------------------------|
D|------------------------------------------------------------------------------|
A|-2-------2-------2------------------------------------------------------------|
E|-3-------3-------3------------------------------------------------------------|

When you're high, I'll take the lows...
    A chord diagramC majorC                           A chord diagramA minorAm                        A chord diagramFF
e|----------------------------------------------------------0------0------0-----|
B|---1------1------1-------------1------1------1--------------1------1------1---|
G|-----0------0------0-------------2------2------2------------------------------|
D|--------------------------------------------------------3------3------3-------|
A|-3------3------3---------2---0------0------0----------------------------------|
E|--------------------------------------------------3--0------------------------|
   A chord diagramG MajorG
e|---3-------3-------3----------------------------------------------------------|
B|-----0-------0-------0--------------------------------------------------------|
G|------------------------------------------------------------------------------|
D|------------------------------------------------------------------------------|
A|-2-------2-------2------------------------------------------------------------|
E|-3-------3-------3------------------------------------------------------------|

And grow as we go...
    A chord diagramC majorC                           A chord diagramA minorAm                        A chord diagramFF
e|----------------------------------------------------------0------0------0-----|
B|---1------1------1-------------1------1------1--------------1------1------1---|
G|-----0------0------0-------------2------2------2------------------------------|
D|--------------------------------------------------------3------3------3-------|
A|-3------3------3---------2---0------0------0----------------------------------|
E|--------------------------------------------------3--0------------------------|
   A chord diagramG MajorG
e|---3-------3-------3----------------------------------------------------------|
B|-----0-------0-------0--------------------------------------------------------|
G|------------------------------------------------------------------------------|
D|------------------------------------------------------------------------------|
A|-2-------2-------2------------------------------------------------------------|
E|-3-------3-------3------------------------------------------------------------|

Grow as we go...
    A chord diagramC majorC                           A chord diagramA minorAm                        A chord diagramFF
e|----------------------------------------------------------0------0------0-----|
B|---1------1------1-------------1------1------1--------------1------1------1---|
G|-----0------0------0-------------2------2------2------------------------------|
D|--------------------------------------------------------3------3------3-------|
A|-3------3------3---------2---0------0------0----------------------------------|
E|--------------------------------------------------3--0------------------------|
   A chord diagramG MajorG
e|---3-------3-------3-------0---------------------------------------------------|
B|-----0-------0-------0-----1---------------------------------------------------|
G|---------------------------0---------------------------------------------------|
D|---------------------------2---------------------------------------------------|
A|-2-------2-------2---------3---------------------------------------------------|
E|-3-------3-------3------------------------------------------------------------|

************************************

Verse 1:

You say there's so much you don’t know

You need to go and find yourself

You say you'd rather be alone

'Cause you think you won’t find it tied to someone else


Pre-Chorus:

Ooo, who said it's true

That the growing only happens on your own?

They don't know me and you


Chorus:

I don't think you have to leave

If to change is what you need

You can change right next to me

When you're high, I'll take the lows

You can ebb and I can flow

And we'll take it slow

And grow as we go

Grow as we go


Verse 2:

You won't be the only one

I am unfinished, I’ve got so much left to learn

I don’t know how this river runs

But I'd like the company through every twist and turn


Pre-Chorus:

Ooh, who said it’s true

That the growing only happens on your own?

They don't know me and you


Chorus:

You don't ever have to leave

If to change is what you need

You can change right next to me

When you're high, I’ll take the lows

You can ebb and I can flow

And we'll take it slow

And grow as we go

Grow as we go

Grow as we go

Grow as we go


Bridge:

I don't know who we'll become

I can't promise it's not written in the stars

But I believe that when it's done

We're gonna see that it was better

That we grew up together


Chorus:

Tell me you don't wanna leave

'Cause if change is what you need

You can change right next to me

When you're high, I'll take the lows

You can ebb and I can flow

We'll take it slow

And grow as we go

Grow as we go

Grow as we go

Grow as we go

Other versions of Grow As We Go

Grow as we goChords
Grow as we go (Ver. 2)Chords

↓ Add and view comments below ↓

What do you think about this song and these tabs?

Add your comments, questions, rant or a thumbs up below.

Almost there ...

Sign in to get your own page with links to favourite songs and more. You are just one click away...

Login with Facebook Login with Google