Bibingka by Ben And Ben

Bibingka tab by Ben And Ben

Guitar tabs

Tuning: Standard (E A D G B E)

Key: Ab

Difficulty: Intermediate

Stave 1:

E|---------------------------4p3--4--6----3-4-6--|
B|---------------------4----4--------------------|
G|------------------5----------------------------|
D|-------------3---------------------------------|
A|-------3--6------------------------------------|
E|--4h6------------------------------------------|

Stave 2:

E|-------------11-------------------------------------------------------|
B|--11/13--11------13--11--11-13p11------11-----------------------------|
G|-----------------------------------13----------12-13p12--10---8-------|
D|----------------------------------------------------------------------|
A|----------------------------------------------------------------------|
E|----------------------------------------------------------------------|



************************************

| p Pull-off
| h Hammer-on
| / Slide up

************************************

Other versions of Bibingka

Alternative guitar chords and tabs for Bibingka by Ben And Ben

Find guitar tabs and chords

A B C D E F G H I J K L M N O P Q R S T U V W X Y Z #