Log in

One click and you are in

Login with Facebook Login with Google

Why sign up and log in

Guitar Tabs Explorer
Beirut tabs for Elephant gun

Guitar tabs

Ukelele intro:

|---3-0-3-0--0-3-0-3-0--0-0---0-0--3-3--3-0-0-0---|
|---0-0-0-0--0-0-0-0-0--0-0h2-2-2--2-2--2-2-2-2---|
|---0-0-0-0--0-0-0-0-0--0-0h2-2-2--2-2--2-2-2-2---|
|---2-2-2-2--2-2-2-2-2--2-2---2-2--2-2--2-2-2-2---|
|-------------------------------------------------|
|-------------------------------------------------|

|---2--2-2--2-0h2-2-2--2-3-3-3-3--3-2-2-2-2--2---|
|---3--3-3--3-3---3-3--3-0-0-0-0--0-0-0-0-0--0---|
|---2--2-2--2-2---2-2--2-0-0-0-0--0-0-0-0-0--0---|
|---0--0-0--0-0---0-0--0-0-0-0-0--0-0-0-0-0--0---|
|------------------------------------------------|
|------------------------------------------------|

Accordion:

|----7--7--7-7--5--5--5-5--5--5--5-5----7-7----7-7---|
|----8--8--8-8--5--5--5-5--7--7--7-7----8-8----7-7---|
|----9--9--9-9--4--4--4-4--7--7--7-7----7-7----7-7---|
|----9--9--9-9-7----7------7--5--7-7----9-9----9-9---|
|---7----7----------------5----5-----10-----10-------|
|----------------------------------------------------|

Trumpet:

|---2h3-5-3-2-2-0-0-0-2-2-2-2-------0h2-3---2---0---|
|-----------------------------3-3-3-----------------|
|---------------------------------------------------|
|---------------------------------------------------|
|---------------------------------------------------|
|---------------------------------------------------|

|---2h3-5-3-2-2-0-0-0-2-2-2-2-------3p2-2--0-0--------|
|-----------------------------3-3-3-------------3-3---|
|-----------------------------------------------------|
|-----------------------------------------------------|
|-----------------------------------------------------|
|-----------------------------------------------------|

Other Trumpet:

|---------------5--2-------------|
|---3--5--2--3--------5-5--3-3---|
|--------------------------------|
|--------------------------------|
|--------------------------------|
|--------------------------------|

Bassline:

|-----------------------------------|
|-----------------------------------|
|----------2--2--4-------0--0---0---|
|---2--2--2-------0--0--0-----4-----|
|-----------------------------------|
|-----------------------------------|

Other versions of Elephant Gun

Elephant gunChords

Almost there ...

Sign in to get your own page with links to favourite songs and more. You are just one click away...

Login with Facebook Login with Google