Log in

One click and you are in

Login with Facebook Login with Google

Why sign up and log in

Guitar Tabs Explorer
Bedhead bass tabs for Bedside table

Bass tabs

  • Difficulty: Beginner
Tuning: Standard (E A D G)

🎸 Intro: starts at 0:11

G|---------------------------------|
D|---------------------------------|
A|-7-----7-0-----0-5-----5/9-----9-| x12
E|---------------------------------|

🎸 Verse 1:

G|---------------------------------|
D|---------------------------------|
A|-7-----7-0-----0-5-----5/9-----9-| x4
E|---------------------------------|


🎸 Bridge:

G|-------------------------------------------------|
D|-------------------------------------------------|
A|-9-----------------------------------------------|
E|-------------------------------------------------|

G|-----------------------------------------------------------------|
D|-----------------------------------------------------------------|
A|-9-----9-7-----0-0---------0---0-9-----9-7-----0-0---------0---0-|
E|-----------------------------------------------------------------|

G|-----------------------------------------------------------------|
D|-----------------------------------------------------------------|
A|-9-----9-7-----0-0-----0---0---0-9-----9-7-----0-0---------0---0-|
E|-----------------------------------------------------------------|

G|---------------------------------|
D|---------------------------------|
A|-7-----7-0-----0-5-----5/9-----9-| x4
E|---------------------------------|

🎸 Verse 2:

G|---------------------------------|
D|---------------------------------|
A|-7-----7-0-----0-5-----5/9-----9-| x4
E|---------------------------------|


🎸 Outro:

G|-------------------------------------------------|
D|-------------------------------------------------|
A|-7-----7-5-----5-4-----4-7---7-7-2-----2-0(0)--0-| x4
E|-------------------------------------------------|

G|-----------------------------------------------------------------|
D|-----------------------------------------------------------------|
A|-4---4--4--4---4-----------------5---5--5--5---5-7---7--2--2---2-|
E|-----------------2---2--2--2---2---------------------------------|

G|-------------------------------------------------------------------------|
D|-------------------------------------------------------------------------|
A|-4---4--4--4---4-----------------5---5--5--5---5-7---7---2---2---0---0---|
E|-----------------2---2--2--2---2-----------------------------------------|

G|-------------------------------------------------|
D|-------------------------------------------------|
A|-7---7---5---5---4---4---7---7-7-2---2---0---0-0-|
E|-------------------------------------------------|

G|-------------------------------------------------|
D|-------------------------------------------------|
A|-7-----7-5-----5-4---4-4-7---7-7-2-------0-0---0-|
E|-------------------------------------------------|

G|-----------------------------------------------------------------|
D|-----------------------------------------------------------------|
A|-5---------------------------------------------------------------|
E|-----------------------------------------------------------------|

G|-------------------------------------------------|
D|-------------------------------------------------|
A|-7-----7-5-----5-4-----4-7---7-7-2-----2-0---0-0-|
E|-------------------------------------------------|

G|-----------------------------------------------------------------|
D|-----------------------------------------------------------------|
A|-0---------------------------------------------------------------|
E|-----------------------------------------------------------------|


************************************

| (n) Ghost note
| /  Slide up

************************************

Almost there ...

Sign in to get your own page with links to favourite songs and more. You are just one click away...

Login with Facebook Login with Google