Search tabs and chords

Search for song, artist or band

Log in

One click and you are in

Login with Facebook Login with Google

Why sign up and log in

Guitar Tabs Explorer
The Beatles bass tabs for This boy

Bass tabs

This Boy

Basstab by Jan Bjorklund, Finland
<jani_bjorklund@yahoo.se>
You are welcome to request for basstabs!
Fingering and positions as suggested by TablEdit,
please use common sense!

TablEdited by Jan Bjorklund
Tuning : E A D G 	Time Signature: 12/8

 |           |           |           |
|------------------------------------------------|
|0-----------0---------------------------4---3---|
|----------------0---4---2-----------2-----------|
|------------------------------------------------|

 |           |           |           |
|----------------4---3---------------6-----------|
|------------------------7-------7-----------7---|
|7-----------7-----------------------------------|
|------------------------------------------------|

 |           |           |           |
|------------------------------------------------|
|0-------------------------------------------4---|
|--------------------4---2-----------------------|
|------------------------------------------------|

 |           |           |           |
|------------------------2-----------------------|
|2-----------------------------------------------|
|--------------------------------------------4---|
|------------------------------------------------|

 |           |           |           |
|------------------------------------------------|
|0---------------------------------------4---3---|
|--------------------4---2-----------------------|
|------------------------------------------------|

 |           |           |           |
|------------------------2-------------------2---|
|2-----------2-----------------------------------|
|------------------------------------------------|
|------------------------------------------------|

 |           |           |           |
|------------------------------------------------|
|0-------------------------------------------4---|
|--------------------4---2-----------------------|
|------------------------------------------------|

 |           |           |           |
|------------------------2-----------------------|
|0-----------------------------------------------|
|------------------------------------------------|
|------------------------------------------------|

 |           |           |           |
|------------------------------------------------|
|0-----------0-----------------------4---0---3---|
|----------------0---4---2-----------------------|
|------------------------------------------------|

 |           |           |           |
|----------------4---3---2-----------2-----------|
|2-----------------------------------------------|
|--------------------------------------------4---|
|------------------------------------------------|

 |           |           |           |
|------------------------------------------------|
|0-------------------------------------------4---|
|--------------------4---2-----------------------|
|------------------------------------------------|

 |           |           |           |
|------------------------2-----------------------|
|2-----------------------------------------------|
|--------------------------------------------4---|
|------------------------------------------------|

 |           |           |           |
|------------------------------------------------|
|0---------------------------------------4---3---|
|--------------------4---2-----------------------|
|------------------------------------------------|

 |           |           |           |
|------------------------2-------------------2---|
|2-----------2-----------------------------------|
|------------------------------------------------|
|------------------------------------------------|

 |           |           |           |
|------------------------------------------------|
|0-------------------------------------------4---|
|--------------------4---2-----------------------|
|------------------------------------------------|

 |           |           |           |
|------------------------2-----------------------|
|0-----------------------------------------------|
|------------------------------------------------|
|------------------------------------------------|

 |           |           |           |
|------------------------------------------------|
|0-----------0-----------------------------------|
|------------------------0-----------4-------0---|
|------------------------------------------------|

 |           |           |           |
|------------------------------------7-5---------|
|------------4-------4---7-------7-------7---5---|
|5-------5---------------------------------------|
|------------------------------------------------|

 |           |           |           |
|0-------------------0-----------------------0---|
|------------------------0-----------------------|
|------------------------------------------------|
|------------------------------------------------|

 |           |           |           |
|------------------------------------------------|
|4-------------------4---------------4-----------|
|------------------------4---------------4---3---|
|------------------------------------------------|

 |           |           |           |
|------------------------------------------------|
|------------------------4-----------4-----------|
|2-------------------2---------------------------|
|------------------------------------------------|

 |           |           |           |
|------------------------------------------------|
|0-----------0---0---0---0-----------0---2---4---|
|------------------------------------------------|
|------------------------------------------------|

 |           |           |           |
|0-------------------0---0-----------0-----------|
|----------------------------------------4-------|
|------------------------------------------------|
|------------------------------------------------|

 |           |           |           |
|------------------------------------------------|
|2-------------------2---2-----------2-----------|
|------------------------------------------------|
|------------------------------------------------|

 |           |           |           |
|2---2---2---2---2---2---2---2---2---2---2---2---|
|------------------------------------------------|
|------------------------------------------------|
|------------------------------------------------|

 |           |           |           |
|------------------------------------6-----------|
|7-----------7-------------------------------7---|
|------------------------------------------------|
|------------------------------------------------|

 |           |           |           |
|------------------------------------------------|
|0-------------------------------------------4---|
|--------------------4---2-----------2-----------|
|------------------------------------------------|

 |           |           |           |
|------------------------2-----------2-----------|
|2-----------2-----------------------------------|
|------------------------------------------------|
|------------------------------------------------|

 |           |           |           |
|------------------------------------------------|
|0-------------------------------------------3---|
|--------------------4---2-----------------------|
|------------------------------------------------|

 |           |           |           |
|------------------------2-----------4-------2---|
|2-----------2-----------------------------------|
|------------------------------------------------|
|------------------------------------------------|

 |           |           |           |
|------------------------------------------------|
|0-----------------------------------------------|
|--------------------4---2-----------------------|
|------------------------------------------------|

 |           |           |           |
|------------------------2-----------------------|
|0-----------------------------------------------|
|------------------------------------------------|
|------------------------------------------------|

 |           |           |           |
|------------------------------------------------|
|0-----------------------0---------------4---3---|
|--------------------4---------------2-----------|
|------------------------------------------------|

 |           |           |           |
|----------------4---3---2-----------2-----------|
|2-----------2-----------------------------------|
|------------------------------------------------|
|------------------------------------------------|

 |           |           |           |
|------------------------------------------------|
|0-------------------------------------------4---|
|--------------------4---2-----------------------|
|------------------------------------------------|

 |           |           |           |
|----------------4---3---2-----------2---4---2---|
|2-----------2-----------------------------------|
|------------------------------------------------|
|------------------------------------------------|

 |           |           |           |
|------------------------------------------------|
|0---------------------------------------4---3---|
|--------------------4---2-----------2-----------|
|------------------------------------------------|

 |           |           |           |
|----------------4---3---2-----------------------|
|2-----------2-----------------------------------|
|----------------------------------------2-------|
|------------------------------------5-------5---|

 |           |           |           |
|------------------------------------------------|
|0-------------------------------------------4---|
|--------------------4---2-----------------------|
|------------------------------------------------|

 |           |           |           |
|----------------4---3---2-----------2---4---2---|
|2-----------2-----------------------------------|
|------------------------------------------------|
|------------------------------------------------|

 |           |           |           |
|------------------------------------------------|
|0---------------------------------------4---3---|
|--------------------4---2-----------2-----------|
|------------------------------------------------|

 |           |           |           |
|----------------4---3---2-----------------------|
|2-----------2-----------------------------------|
|----------------------------------------2-------|
|------------------------------------5-------5---|

 |           |           |           |
|------------------------------------------------|
|0-------------------------------------------4---|
|--------------------4---2-----------------------|
|------------------------------------------------|

 |           |           |           |
|----------------4---3---2-----------2---4---2---|
|2-----------2-----------------------------------|
|------------------------------------------------|
|------------------------------------------------|

 |           |           |           |
|------------------------------------------------|
|0---------------------------------------4---3---|
|--------------------4---2-----------2-----------|
|------------------------------------------------|

 |           |           |           |
|----------------4---3---2-----------------------|
|2-----------2-----------------------------------|
|----------------------------------------2-------|
|------------------------------------5-------5---|

 |           |           |           |
|------------------------------------------------|
|0-------------------------------------------4---|
|--------------------4---2-----------------------|
|------------------------------------------------|

 |           |           |           |
|----------------4---3---2-----------2---4---2---|
|2-----------2-----------------------------------|
|------------------------------------------------|
|------------------------------------------------|

 |           |           |           |
|------------------------------------------------|
|0---------------------------------------4---3---|
|--------------------4---2-----------2-----------|
|------------------------------------------------|

 |           |           |           |
|----------------4---3---2-----------------------|
|2-----------2-----------------------------------|
|----------------------------------------2-------|
|------------------------------------5-------5---|

Almost there ...

Sign in to get your own page with links to favourite songs and more. You are just one click away...

Login with Facebook Login with Google