Search tabs and chords

Search for song, artist or band

Log in

One click and you are in

Login with Facebook Login with Google

Why sign up and log in

Guitar Tabs Explorer
The Beatles bass tabs for Suzys parlour

Bass tabs

Tuning: Standard (E A D G)

Key: A

Difficulty: Intermediate

Intro:
G|---------------------------------|---------------------------------|
D|---------------------------------|---------------------------------|
A|---------------------------------|------------------------7--------|
E|---------------------------------|---------------------------------|

Verse:
G|---------------------------------|---------------------------------|
D|------------------------4------7-|------------------------4------7-|
A|--------4-----4-7-----7----------|--------4-----4-7-----7----------|
E|5-----5--------------------------|5-----5--------------------------|

G|---------------------------------|---------------------------------|
D|------------------------4------7-|---------------------------------|
A|--------4-----4-7-----7----------|--------4-----4-7-----7-4------4-|
E|5-----5--------------------------|5-----5--------------------------|

G|---------------------------------|---------------------------------|
D|---------------------------------|---------------------------------|
A|5---\----------------------------|5---------------5-------6--------|
E|--------2-------5-------2------2-|--------2------------------------|

G|---------------------------------|---------------------------------|
D|---------------------------------|---------------------------------|
A|--------4-------7-------4--------|--------4-------5-------6--------|
E|5------------------------------0-|5--------------------------------|

G|---------------------------------|---------------------------------|
D|--------6-------9-------6--------|--------4-------5-------6--------|
A|7--------------------------------|5--------------------------------|
E|---------------------------------|---------------------------------|

G|---------------------------------|---------------------------------|
D|---------------------------------|---------------------------------|
A|--------4-------5-------6------7-|--------4-------5-----/-7---\----|
E|5--------------------------------|5--------------------------------|

G|---------------------------------|---------------------------------|
D|---------------------------------|---------------------------------|
A|--------4-----4-7-----7-4------7-|--------4-----4-7-----7-4------7-|
E|5-----5--------------------------|5-----5--------------------------|

G|---------------------------------|---------------------------------|
D|7--------------------------------|---------------------------------|
A|--------4-------5-------6---/--7-|--------4-------5-------6--------|
E|---------------------------------|5--------------------------------|

G|---------------------------------|---------------------------------|
D|---------------------------------|---------------------------------|
A|5---\-------------------2--------|5--------------------------------|
E|--------2-------5----------------|--------3-------4-------5--------|

G|---------------------------------|---------------------------------|
D|---------------------------------|---------------------------------|
A|--------4-------5-------6----/-7-|--------4-------5-------6--------|
E|5--------------------------------|5--------------------------------|

G|------------------------6--------|---------------------------------|
D|--------6-------9--------------9-|--------4-------5-------6--------|
A|7--------------------------------|5--------------------------------|
E|---------------------------------|---------------------------------|

G|---------------------------------|---------------------------------|
D|---------------------------------|---------------------------------|
A|--------4-------5-------6--------|---------------------------------|
E|5--------------------------------|0-----0-0-----0-0-----0-0--------|

Chorus:
G|---------------------------------|---------------------------------|
D|---------------------------------|---------------------------------|
A|--------4-------5-------6--------|--------4-------5-------6--------|
E|5--------------------------------|5--------------------------------|

G|---------------------------------|---------------------------------|
D|---------------------------------|---------------------------------|
A|--------4-------5-------6--------|0-------2-------3-------4--------|
E|5--------------------------------|---------------------------------|

G|---------------------------------|---------------------------------|
D|---------------------------------|---------------------------------|
A|5--------------------------------|0-------2-------3-------4---/--5-|
E|--------2-------3-------4--------|---------------------------------|

G|---------------------------------|---------------------------------|
D|---------------------------------|---------------------------------|
A|--------4-----4-5-----5-6----/-7-|--------4-------5-------6--------|
E|5-----5--------------------------|5--------------------------------|

G|---------------------------------|---------------------------------|
D|---------------------------------|---------------------------------|
A|7--------------------------------|--------5------------------------|
E|--------4-------5-------6--------|7---\-----------2-------3--------|

G|---------------------------------|---------------------------------|
D|7--------------------------------|---------------------------------|
A|--------4-------5-------6--------|7-----7-7-----7-7-----7-7--------|
E|---------------------------------|---------------------------------|

Verse:
G|---------------------------------|---------------------------------|
D|---------------------------------|---------------------------------|
A|--------4-----4-7-----7-4------7-|--------4-----4-7-----7-4------7-|
E|5-----5--------------------------|5-----5--------------------------|

G|---------------------------------|---------------------------------|
D|---------------------------------|---------------------------------|
A|--------4-----4-7-----7-4------7-|0-------2-------3-------4--------|
E|5-----5--------------------------|---------------------------------|

G|---------------------------------|---------------------------------|
D|---------------------------------|---------------------------------|
A|5---\-----------5----------------|5---------------5----------------|
E|--------2---------------4--------|--------2---------------4--------|

G|---------------------------------|---------------------------------|
D|---------------------------------|---------------------------------|
A|--------4-------7-------4------7-|--------4-------5-------6--------|
E|5--------------------------------|5--------------------------------|

G|---------------------------------|---------------------------------|
D|--------6-------9-------6------9-|--------4-------5-------6------7-|
A|7--------------------------------|5--------------------------------|
E|---------------------------------|---------------------------------|

G|---------------------------------|---------------------------------|
D|---------------------------------|---------------------------------|
A|--------4-------5-------6--------|--------7-----7-7-----7-7--------|
E|5--------------------------------|0-----0--------------------------|


Chorus:
G|---------------------------------|---------------------------------|
D|---------------------------------|--------7------------------------|
A|--------4-------5-------6--------|7---------------5-------6----/-7-|
E|5--------------------------------|---------------------------------|

G|---------------------------------|---------------------------------|
D|---------------------------------|---------------------------------|
A|--------4-------5-------6----/-7-|--------4-------5-------7--------|
E|5--------------------------------|5--------------------------------|

G|---------------------------------|---------------------------------|
D|---------------------------------|---------------------------------|
A|5--------------------------------|0-------2-------3-------5---/--7-|
E|--------2-------3-------4--------|---------------------------------|

G|---------------------------------|---------------------------------|
D|---------------------------------|---------------------------------|
A|--------4-------5-------6--------|--------4-------5-------6--------|
E|5--------------------------------|5--------------------------------|

G|---------------------------------|---------------------------------|
D|---------------------------------|---------------------------------|
A|7-----------------------2--------|---------------------------------|
E|--------2-------5----------------|7-------2-------3-------4--------|

G|---------------------------------|---------------------------------|
D|---------------------------------|---------------------------------|
A|--------4-------5-------6--------|7--------------------------------|
E|5--------------------------------|------------6---5----------------|

G|---------------------------------|---------------------------------|
D|---------------------------------|---------------------------------|
A|7--------------------------------|---------------------------------|
E|---------------------------------|---------------------------------|

After :

G|---------------------------------|---------------------------------|
D|------------------------4--------|---------------------------------|
A|--------4-----4-7-----7----------|---------------------------------|
E|5--------------------------------|---------------------------------|




***********************************************************************

/ = Slide up
\ = Slide down

***********************************************************************

Almost there ...

Sign in to get your own page with links to favourite songs and more. You are just one click away...

Login with Facebook Login with Google