Guitar Tabs Explorer
The Beatles guitar tabs for Norwegian wood (Ver. 3)

Norwegian Wood tab


5 / 5 [5 votes]


Lenom5Author: Lenom5

Norwegian Wood tab by The Beatles (Ver. 3) (Solo)

This is an acoustic version of the Norwegian wood guitar solo by The Beatles.

Guitar tabs

Print
  • Tuning: Standard tuning
-------------------------------------------------------------------------------
                 Norwegian wood -acoustic guitar solo - The Beatles
-------------------------------------------------------------------------------

Tabbed by: Lenom Jon

Tuning: Standard tuning

acoustic guitar solo


e|----10--10--12---10--8--7-----5--8--7-3------8----3-3-3--------------------|
B|-----8---8---8----8--8--8-----3--8--8-0----6-6-5--3-3-3--------------------|
G|-----0---0---0----0--0--0-----0--0--0-0----5---5--0-0-0--------------------|
D|--------------------------------------------------0-0-0--------------------|
A|---------------------------------------------------------------------------|
E|---------------------------------------------------------------------------|

e|----3--3----0--------3---------------3---3----------------3---3-3----------|
B|----3--3------3-1----0------1-0------0---0--------1-------0---0-0----------|
G|----0--0------0-0----0----2----------0---0----------------0---0-0----------|
D|----0----------------0---------------0---0------3---2-----0---0-0----------|
A|----2----------------2---------------2---2----------------2---2-2----------|
E|----3----------------3---------------3---3----------------3---3-3----------|


************************************

| /   slide up
| \   slide down
| h   hammer-on
| p   pull-off
| ~   vibrato
| +   harmonic
| x   Mute note
| b   Bend
| pb  Pre-bend
| br  Bend release
| pbr Pre-bend release
| brb Bend release bend

************************************

Other versions of Norwegian Wood

- Norwegian woodChords
- Norwegian wood (Ver. 2)Chords
- Norwegian wood this bird has flownChords
- Norwegian woodTabs
- Norwegian wood (Ver. 2)Tabs

Comment this song and these guitar tabs

Do you have corrections, comments on the guitar tabs, thoughts about the song or a message to the author? Write them below.