Log in

One click and you are in

Login with Facebook Login with Google

Why sign up and log in

Guitar Tabs Explorer
The Beatles bass tabs for No reply

Bass tabs with lyrics

Verse:
G|------- ------- ------- -------|------- ------- ------- -------|
D|-------------------------------|-------------------------------|
A|-------------------------------|-------------------------------|
E|-------------------------------|-------------------------------|
                       This    once be-
                         happened

G|------- ------- ------- -------|------- ------- ------- -------|
D|3------------------------------|5------------------------------|
A|----------------3--------------|----------------5--------------|
E|-------------------------------|-------------------------------|
 fore,    when I came to your door,          no re-
G|------- ------- ------- -------|------- ------- ------- -------|
D|-------------------------------|-------------------------------|
A|3------------------------------|3------------------------------|
E|----------------3--------------|----------------3--------------|
 ply                     They said it wasn't


G|------- ------- ------- -------|------- ------- ------- -------|
D|3------------------------------|5------------------------------|
A|----------------3--------------|----------------5--------------|
E|-------------------------------|-------------------------------|
 you,    I    saw you peep through          your


G|------- ------- ------- -------|------- ------- ------- -------|
D|-------------------------------|----------------------------7--|
A|3------------------------------|3------------------------------|
E|----------------3--------------|----------------3--------------|
 window                     I  saw the light,

G|------- ------- ------- -------|------- ------- ------- -------|
D|--------7-------7---7---7------|-------------------------------|
A|----------------------------7--|--------7-------7---7---7---8--|
E|-------------------------------|-------------------------------|
                         I  saw the light,


G|------- ------- ------- -------|------- ------- ------- -------|
D|-------------------------------|-------------------------------|
A|--------8-------8---8---8---7--|7---------------7--------------|
E|-------------------------------|-------------------------------|
                       I know that you saw


G|------- ------- ------- -------|------- ------- ------- -------|
D|-------------------------------|5-----------------------5------|
A|5---------------5--------------|----------------5-----------5--|
E|------------5------------------|-------------------------------|
 me,     cause I looked to see           your
             up

G|------- ------- ------- -------|------- ------- ------- -------|
D|-------------------------------|-------------------------------|
A|3------------------------------|3------------------------------|
E|----------------3--------------|----------------3--------------|
 face                    I  tried to tele-


Verse:
G|------- ------- ------- -------|------- ------- ------- -------|
D|3------------------------------|5------------------------------|
A|----------------3--------------|----------------5--------------|
E|-------------------------------|-------------------------------|
 phone,   they said  weren't home,          that's
           you  at               a

G|------- ------- ------- -------|------- ------- ------- -------|
D|-------------------------------|-------------------------------|
A|3---------------------------2--|3------------------------------|
E|----------------3--------------|----------------3--------------|
 lie                     Cause know where
                         I      you've

G|------- ------- ------- -------|------- ------- ------- -------|
D|3------------------------------|5-----------------------5------|
A|----------------3--------------|----------------5--------------|
E|-------------------------------|-------------------------------|
 been,    I    saw you walk in           your


G|------- ------- ------- -------|------- ------- ------- -------|
D|-------------------------------|----------------------------7--|
A|3------------------------------|3---------------3--------------|
E|----------------3--------------|-------------------------------|
 door                      I  nearly died,


G|------- ------- ------- -------|------- ------- ------- -------|
D|--------7-------7---7---7------|-------------------------------|
A|----------------------------7--|----------------7---7---7---8--|
E|-------------------------------|-------------------------------|
                         I  nearly died,


G|------- ------- ------- -------|------- ------- ------- -------|
D|-------------------------------|-------------------------------|
A|----------------8---8---8---7--|----------------7-------7------|
E|-------------------------------|-------------------------------|
                       Cause  walked  in
                         you   hand

G|------- ------- ------- -------|------- ------- ------- -------|
D|-------------------------------|5-----------------------5------|
A|8-----------------------8------|----------------5---5----------|
E|----------------8---8----------|-------------------------------|
 hand      with an o - ther man        in my


G|------- ------- ------- -------|------- ------- ------- -------|
D|-------------------------------|----------------5--------------|
A|3---------------------------2--|3------------------------------|
E|----------------3---3---3------|-------------------------------|
 place                        If I  were


Bridge:
G|------- ------- ------- -------|------- ------- ------- -------|
D|-------------------------------|----------------------------7--|
A|3---3---3---3---3---3---3---5--|7-------7---7---7---7---7------|
E|-------------------------------|-------------------------------|
 you,          I'd   rea - lize      that


G|------- ------- ------- -------|------- ------- ------- -------|
D|7---------------5--------------|7---7---7---7---7---7---7------|
A|--------------------7---4---4--|-------------------------------|
E|-------------------------------|-------------------------------|
 I                            love you


G|------- ------- ------- -------|------- ------- ------- -------|
D|--------7-------------------2--|3---3---3---3---3---3---3---3--|
A|5-----------5---5---5---5------|-------------------------------|
E|-------------------------------|-------------------------------|
 more            than a  -  ny   o  -  ther


G|------- ------- ------- -------|------- ------- ------- -------|
D|----------------5-------5------|-------------------------------|
A|3-----------3------------------|3-----------3---3--------------|
E|-------------------------------|-------------------------------|
 guy                         And I'll for-


G|------- ------- ------- -------|------- ------- ------- ----2--|
D|-------------------------------|2---2---2---2---2---2---2------|
A|3-----------3---3-------3------|-------------------------------|
E|-------------------------------|-------------------------------|
 give          the   lies          that


G|2------ ----2-- ------- -------|------- ------- ------- -------|
D|----------------5---2----------|7-------7-------7---7---7---7--|
A|------------------------4---4--|-------------------------------|
E|-------------------------------|-------------------------------|
 I                            heard be-


G|------- ------- ------- -------|------- ------- ------- -------|
D|-------------------------------|3-----------3---3-------3------|
A|5---5-------5---5---5-------5--|-------------------------------|
E|-------------------------------|-------------------------------|
 fore,         when you gave  me   no   re-


G|------- ------- ------- -------|------- ------- ------- -------|
D|-------------------------------|-------------------------------|
A|3-----------3------------------|3-----------3-----------3------|
E|----------------3-------3------|----------------3--------------|
 ply                     I  tried to tele-


Verse:
G|------- ------- ------- -------|------- ------- ------- -------|
D|3------------------------------|5------------------------------|
A|----------------3--------------|----------------5--------------|
E|-------------------------------|-------------------------------|
 phone,   they said  weren't home,          that's
           you   at               a

G|------- ------- ------- -------|------- ------- ------- -------|
D|-------------------------------|-------------------------------|
A|3------------------------------|3------------------------------|
E|----------------3--------------|----------------3--------------|
 lie                     Cause know where
                         I      you've

G|------- ------- ------- -------|------- ------- ------- -------|
D|3------------------------------|5------------------------------|
A|----------------3--------------|----------------5--------------|
E|-------------------------------|-------------------------------|
 been,    I    saw you walk in           your


G|------- ------- ------- -------|------- ------- ------- -------|
D|-------------------------------|----------------------------7--|
A|3------------------------------|3------------------------------|
E|----------------3--------------|----------------3--------------|
 door                      I  nearly died,


G|------- ------- ------- -------|------- ------- ------- -------|
D|--------7-------7---7---7------|-------------------------------|
A|----------------------------7--|----------------7---7---7---8--|
E|-------------------------------|-------------------------------|
                         I  nearly died,


G|------- ------- ------- -------|------- ------- ------- -------|
D|-------------------------------|-------------------------------|
A|--------8-------8---8---8---7--|----------------7-------7------|
E|-------------------------------|-------------------------------|
                       Cause  walked  in
                         you   hand

G|------- ------- ------- -------|------- ------- ------- -------|
D|-------------------------------|5-----------------------5------|
A|8------------------------------|----------------5--------------|
E|----------------8--------------|-------------------------------|
 hand      with an o - ther man        in my


G|------- ------- ------- -------|------- ------- ------- -------|
D|-------------------------------|----------------------------7--|
A|3------------------------------|3------------------------------|
E|----------------3-----------3--|----------------3--------------|
 place                        No re- ply!


Outro:
G|------- ------- ------- -------|------- ------- ------- -------|
D|----------------7---7---7------|-------------------------------|
A|----------------------------7--|----------------7---7---7---8--|
E|-------------------------------|-------------------------------|
                           No re- ply!


G|------- ------- ------- -------|------- ------- ------- -------|
D|-------------------------------|-------------------------------|
A|--------8-------8---8---8------|-------------------------------|
E|----------------------------8--|-------------------------------|

Please e-mail me for any corrections.

Almost there ...

Sign in to get your own page with links to favourite songs and more. You are just one click away...

Login with Facebook Login with Google