Log in

One click and you are in

Login with Facebook Login with Google

Why sign up and log in

Guitar Tabs Explorer
The Beatles bass tabs for My bonnie

Bass tabs

My Bonnie
This version by The Beatles featuring Tony Sheridan on lead vocals
Released in 1963 (original 1961 Germany) #48 UK and #5 in Germany.
Bass performance Paul McCartney. This is what I played with my Rock n Roll
Band many moons ago. Not exact but it does fit the song.
Intro:
 My Bonnie lies over the ocean..........My Bonnie lies over the sea
G|---------------------------------------------------------------------|
D|---7------4--------------7---------7------7------7-------------------|
A|-------------7--5----5--------7--7-----7------------------------7----|
E|-------------------------------------------------------7----7------7-|

    My Bonnie lies over the ocean.........Oh bring back My Bonnie
G|---------------------------------------------------------------------|
D|---4--6--7-------7--------------------------------------------2------|
A|-7-----------------7-5----5---------------------2----------2---------|
E|------------------------------5--4--3--2----2-4----------------------|

 To Me     (Break – Guitar Riff)
G|----2---------------------------------------------|
D|-2------2------------------------------5--3--2----|
A|-----------4--0---------------------------------5-|
E|--------------------------------------------------|


Verse 1:
G|--------------------------------------------------------------------|
D|---2--5--2---3--1--0-------2--5--2----2--5--2----2--5--2------------|
A|-3-------------------4---3----------3----------3----------5--3--2---|
E|------------------------------------------------------------------5-|

G|----------------------------------------------------------------------|
D|------------5--5--5--5----2--5--2---3--1--0---------------------------|
A|------------------------3-------------------4--3--3--3--2--0--0--2--4-|
E|-3--3--3--3-----------------------------------------------------------|

G|-----------------------------------------------|
D|-------------5--5--5--5--------------5--3--2---|
A|-5--5--5--5--------------3--3--3--3----------5-|
E|-----------------------------------------------|

Chorus:  (Play Chorus x2)
G|----------------------------------------------------------------------|
D|-------------------------3--3--3--3--------------5--3--2----5--3--2---|
A|-3--3--3--3--3--3--3--3--------------5--5--5--5----------5----------5-|
E|----------------------------------------------------------------------|

G|----------------------|
D|------------5--3--2---|
A|-3--3--3--3---------5-|
E|----------------------|


Solo:
G|----------------------------------------------------------------------|
D|---2--5--2----2--5--2-----2--5--2-------------------------------------|
A|-3----------3----------3-----------3--5--6--7--8--8--8--8--8--7--6--5-|
E|----------------------------------------------------------------------|

G|-----------------------------------------------------------------------|
D|-------------------------5--5--5--5---3--3--3--3-------------5--3--2---|
A|-3--3--3--3--3--3--3--3---------------------------3--3--3--3---------5-|
E|-----------------------------------------------------------------------|

G|------------------------------------------------------------------------|
D|-------------------------------------------------3--3--3--3--3--3--3--3-|
A|-3--3--3--3--3--3--3--3---3--3--3--3--3--3--3--3------------------------|
E|------------------------------------------------------------------------|

G|---------------------------------------------------------------------|
D|------------------------5--5--5--5---3--3--3--3------------5--3--2---|
A|-3--3--3--3--3--3--3--3-------------------------3--3--3--3---------5-|
E|---------------------------------------------------------------------|


Verse 2:
G|--------------------------------------------------------------------|
D|---2--5--2---3--1--0-------2--5--2----2--5--2----2--5--2------------|
A|-3-------------------4---3----------3----------3----------5--3--2---|
E|------------------------------------------------------------------5-|

G|----------------------------------------------------------------------|
D|------------5--5--5--5----2--5--2---3--1--0---------------------------|
A|------------------------3-------------------4--3--3--3--2--0--0--2--4-|
E|-3--3--3--3-----------------------------------------------------------|

G|-----------------------------------------------|
D|-------------5--5--5--5--------------5--3--2---|
A|-5--5--5--5--------------3--3--3--3----------5-|
E|-----------------------------------------------|


Chorus:
G|----------------------------------------------------------------------|
D|-------------------------3--3--3--3--------------5--3--2----5--3--2---|
A|-3--3--3--3--3--3--3--3--------------5--5--5--5----------5----------5-|
E|----------------------------------------------------------------------|

G|----------------------|
D|------------5--3--2---|
A|-3--3--3--3---------5-|
E|----------------------|


Outro:
G|----------------------------------------------------------------------|
D|-------------------------3--3--3--3--------------5--3--2----5--3--2---|
A|-3--3--3--3--3--3--3--3--------------5--5--5--5----------5----------5-|
E|----------------------------------------------------------------------|

G|--------------2--4--5----|
D|---2--3--4--5------------|
A|-3---------------------3-|
E|-------------------------|

Almost there ...

Sign in to get your own page with links to favourite songs and more. You are just one click away...

Login with Facebook Login with Google