Log in

One click and you are in

Login with Facebook Login with Google

Why sign up and log in

Guitar Tabs Explorer
The Beatles bass tabs for Mr moonlight

Bass tabs

Tuning: Standard tuning

-----------------------------------------------------------------------------
                     Artist - Beatles
                     ******************
                    Song - Mr Moonlight
                    *********************
                  Album - Beatles for Sale (1964)
                 *********************************
                    Tabbed By - Ayreon77
                    **********************
-----------------------------------------------------------------------------

Tuning = Standard
Mr Moonlight.......


G|------6-6-|------6-6-|
D|-4--4-----|-4--4-----|
A|----------|----------|
E|----------|----------|


----------------------------------------

VERSE 1
********
G|------6-|------6-6-|------6-|-------3-|-4-4---|-4-4---|------6-|--------|
D|-4--4---|-4--4-----|-4--4---|-4-4-6---|-----4-|-----4-|-4--4---|-4--4-4-|
A|--------|----------|--------|---------|-------|-------|--------|--------|
E|--------|----------|--------|---------|-------|-------|--------|--------|

G|-----------|-----------|-----------|----------|-----------4--4---4-|
D|------8--8-|------8--8-|------8--8-|----------|------4--4------4---|
A|-6--6------|-6--6------|-6--6------|-6--6-6-4-|-2--2---------------|
E|-----------|-----------|-----------|----------|--------------------|


G|------------|-----3-|-4-4-----|-4-4---4-|-----------|
D|-4--4-4-4-4-|-4-6---|-----4-4-|-----4---|-4--4-4--4-|
A|------------|-------|---------|---------|-----------|
E|------------|-------|---------|---------|-----------|

                  h  h
G|------------|-------------|------4-6-4-6-|------6--6-|
D|-------8--8-|-6--6--------|-4--4---------|-4--4------|
A|-6--6-------|-------6-5-4-|--------------|-----------|
E|------------|-------------|--------------|-----------|


----------------------------------------

VERSE 2
********            h  h
G|------6--6|------6--6|------4-6-4-6|------6--6|------6--6-|------6--6-|------6--6-|
D|-4--4-----|-4--4-----|-4--4--------|-4--4-----|-4--4------|-4--4------|-4--4------|
A|----------|----------|-------------|----------|-----------|-----------|-----------|
E|----------|----------|-------------|----------|-----------|-----------|-----------|


G|--------3-|-4-4-----|-4-4-----|------6---|----------|
D|-4--4-6---|-----4-4-|-----4-4-|-4--4---4-|----------|
A|----------|---------|---------|----------|-6--6-6-6-|
E|----------|---------|---------|----------|----------|

            h  h
G|--------------|------4-6-4-6-|------6--6-|
D|-6--6---6---s-|-4--4---------|-4--4------|
A|------6---4-\-|--------------|-----------|
E|--------------|--------------|-----------|


----------------------------------------
ORGAN
******
G|------6--6|------6--6-|------6--6-|------6--6-|------6--6-|------6--6-|------6--6-|
D|-4--4-----|-4--4------|-4--4------|-4--4------|-4--4------|-4--4------|-4--4------|
A|----------|-----------|-----------|-----------|-----------|-----------|-----------|
E|----------|-----------|-----------|-----------|-----------|-----------|-----------|


----------------------------------------

BRIDGE
*******
G|--------3-|-4-4-----|-4-4-----|------6---|----------|
D|-4--4-6---|-----4-4-|-----4-4-|-4--4---4-|----------|
A|----------|---------|---------|----------|-6--6-6-6-|
E|----------|---------|---------|----------|----------|

            h  h
G|--------------|------4-6-4-6-|------6----|
D|-6--6---6---s-|-4--4---------|-4--4------|
A|------6---4-\-|--------------|---------4-|
E|--------------|--------------|-----------|


----------------------------------------

VERSE 3
********
G|------6--6|------6--6-|------6--6-|------6--6-|------6--6-|------6--6-|------6--6-|
D|-4--4-----|-4--4------|-4--4------|-4--4------|-4--4------|-4--4------|-4--4------|
A|----------|-----------|-----------|-----------|-----------|-----------|-----------|
E|----------|-----------|-----------|-----------|-----------|-----------|-----------|


G|--------3-|-4-4-----|-4-4-----|------6---|----------|
D|-4--4-6---|-----4-4-|-----4-4-|-4--4---4-|----------|
A|----------|---------|---------|----------|-6--6-6-6-|
E|----------|---------|---------|----------|----------|

            h  h
G|--------------|------4-6-4-6-|------6--6-|
D|-6--6---6---s-|-4--4---------|-4--4------|
A|------6---4-\-|--------------|-----------|
E|--------------|--------------|-----------|


----------------------------------------

OUTRO fade out..........
******  h  h
G|------4-6-4-6-|------6--6-|
D|-4--4---------|-4--4------|
A|--------------|-----------|
E|--------------|-----------|


ENJOY...........

Mr Moonlight bass tab

The Beatles bass tabs for Mr moonlight "Mr. Moonlight" is a song The Beatles included on their 1964 album "Beatles for sale". It was originally written by Roy Lee Johnson. It is no surprise that bass guitar is played by Sir Paul McCartney!

Almost there ...

Sign in to get your own page with links to favourite songs and more. You are just one click away...

Login with Facebook Login with Google