Log in

One click and you are in

Login with Facebook Login with Google

Why sign up and log in

Guitar Tabs Explorer
The Beatles bass tabs for Long long long

Bass tabs

Guitar Intro:
e|-------------------------------------1--1-1---0-0--0-0-|
B|-------------------------------------1--1-1---1-1--1-1-|
G|------------------0------------------2--2-2---0-0--0-0-|
D|---------3-h5---0-h-----------3-h5-3-3--3-3---2-2--2-2-|
A|-----3-h5-----1-h-h-------3-h5-------x--x-x---3-3--3-3-|
E|-3-h6-----------------3-h6-----------x--x-x---x-x--x-x-|
Verse 1:
  It's been a long,  long,   long time.     How could I
G|---------------------------------------------------------------|
D|-----------------------------------3---------3-----------------|
A|--------------1------0----------3---------1--------3-----------|
E|---------------------------3-----------------------------------|

  ever have lost you?         When I  loved you.
G|------------------------------------------------------------|
D|-----------------------3-2-------2-5------------3-----------|
A|-----------------5---------5-3-5-----------5-----------3----|
E|-3---------3------------------------------------------------|


Verse 2:
  It took a long, long, long  time.       Now I'm so
G|--------------------------------------------------------------|
D|---------------------------------3---------3------------------|
A|-----------1------0-----------3----------1-----0-1-3----------|
E|--------------------------3-----------------------------------|

  happy I found  you.         How I   love you.
G|------------------------------------------------------------|
D|------------------------3-2-------2-5----------5-3----------|
A|------------------5---------5-3-5----------5-----------3----|
E|--3--------3------------------------------------------------|

  So many tears I was searching.             So many
G|----------------------------------------------------------------|
D|------------3--2----------------5-------------------3-----------|
A|-1----------------5--3--------------5---------3-5-----1---------|
E|--------------------------------------3-5--6--------------------|

  tears I was wast--ting.  Oh,   oh.         Now I can
G|--------------------------------------------5--------------------|
D|--3----2-----------5--------------------2-5-----5----------------|
A|----------5--3-----------5---------3-5------------3--------------|
E|---------------------------3-5--6--------------------------------|

                 Verse 3:
  see  you,  be you.      How can I ever misplace  you?
G|------------------------------|----------------------------------|
D|--------------5---3-------3---|----------------------------------|
A|-1------0-------3------1------|---3-------------------------5----|
E|------------3-----------------|-------------3---------3----------|

          How I  want you.   Oh I  love you.
G|------------------------------------------------------------------|
D|-3-2-------2-5-----------5-3-2-------2-5----------3-2-------2-3-5-|
A|-----5-3-5------------5--------5-3-5---------5--------5-3-5-------|
E|------------------------------------------------------------------|

  You know that I need you.   Oh  I  love you.
G|--------------------------------------------------------|
D|-------------------3--2-------2-5---------3-2-------2---|
A|------5-----------------5-3-5--------5--------5-3-5---3-|

Almost there ...

Sign in to get your own page with links to favourite songs and more. You are just one click away...

Login with Facebook Login with Google