Log in

One click and you are in

Login with Facebook Login with Google

Why sign up and log in

Guitar Tabs Explorer
The Beatles bass tabs for Like dreamers do

Bass tabs

LIKE DREAMERS DO - THE BEATLES
from Anthology I
Tabbed by: Jose Luis Tarantino (bassist of Tolerancia 0, jtarant@fi.uba.ar)


Intro:
G|------------------|
D|-3---4---5---6----|
A|---4---5---6---7--|
E|------------------|
Verse 1: "I, I saw a girl in my dreams..."
G|------------------------------------------------------------------------------
D|-7--7---4--4-----------------2-0----------2------2--4--4-----4--4---4-----4-4-
A|---------------2---2---4---------4-2--0-4----0-4---------4-4------4---2--2---2
E|------------------------------------------------------------------------------
>verse1
>---4------------------------------------------------------------|
>-----------------2-0--------------------------------------4-3-2-|
>-2-----4--4-4--4-----4-2--0-0-0-0-0-0-4-4-4-2/4-4-4--2--2-------|
>-----2----------------------------------------------------------|


Pre-Chorus:
G|-------------------|
D|-------2-----------|
A|--0--0---4-0-2-3-4-|
E|-------------------|


Chorus: "And I, I, I, I, I, I..."
G|--------------------------------------------------------------|
D|-0-0-0-0-2-2-2-2-----2-----2-------4-4------4----2-2-2-2-2-2--|
A|-----------------0-4---0-4----2--2-----2--2---2---------------|
E|--------------------------------------------------------------|

Verse 2: "You came just one dream ago..."
G|------------------------------------------------4---------------------|
D|-----2------2--4--4-----4--4---4-------4-4--------------------2-0-----|play
A|-0-4----0-4---------4-4------4----2--2-----2--2-----4--4-4--4-----4-2-|twice,
E|--------------------------------------------------2-------------------|then
>verse2
>-------------------------------------|
>-------------------------------4-3-2-|
>-0-0-0-0-0-0-4-4-4-4-4-4--2--2-------|
>-------------------------------------|
then play pre-chorus and chorus.


Verse 3: play verse 2

      "Like dreamers do, like dreamers do..."
G|----------0h2-0h2-0h2-0h2-0h2-0h2-2-2-2-2-2-2-2-2-2-2-2-2-|
D|--------2-------------------------------------------------|
A|-0--0-4---------------------------------------------------|
E|----------------------------------------------------------|


Outro:
G|---------------------------------|
D|-3---4---5---6----7--7-4-2-----7-|
A|---4---5---6---7-----------0-----|
E|---------------------------------|

Almost there ...

Sign in to get your own page with links to favourite songs and more. You are just one click away...

Login with Facebook Login with Google