Log in

One click and you are in

Login with Facebook Login with Google

Why sign up and log in

Guitar Tabs Explorer
The Beatles bass tabs for Lady madonna

Bass tabs

beatles
			------------------------
		 	   lady madonna
			------------------------


VERSE:

G|------------------------------2-|------------------------------2-|
D|----------------0---0---3--4----|----------------0---0---3--4----|
A|0---0---3---4-------------------|0---0---3---4-------------------|
E|--------------------------------|--------------------------------|
 ^    ^    ^    ^    ^    ^    ^    ^


G|--------------------------------|--------0---0---2---2-----------|
D|----------------0---0---2---2---|3---3---------------------------|
A|0---0---3---4-------------------|--------------------------------|
E|--------------------------------|--------------------------------|
 ^    ^    ^    ^    ^    ^    ^    ^


CHORUS:

G|--------------------------------|0---0---------------------------|
D|0---0---------------------------|--------3---3---2---2---0---0---|
A|--------3---3---2---2---0---0---|--------------------------------|
E|--------------------------------|--------------------------------|
 ^    ^    ^    ^    ^    ^    ^    ^

G|--------------------------------|--------------------------------|
D|--------------------------------|------------------------2---2---|
A|3---3---2---2---0---0-----------|0---0---2---2---3---3-----------|
E|------------------------3---3---|--------------------------------|
 ^    ^    ^    ^    ^    ^    ^    ^

G|--------------------------------|0---0---------------------------|
D|0---0---------------------------|--------3---3---2---2---0---0---|
A|--------3---3---2---2---0---0---|--------------------------------|
E|--------------------------------|--------------------------------|
 ^    ^    ^    ^    ^    ^    ^    ^

G|--------------------------------|
D|------------2-------------------|
A|3-------2-----------------------|
E|-----------------0--------------|
 ^    ^    ^    ^


richard welsh
this is my own work...
ric@munkie.fsnet.co.uk
30/8/2001

Almost there ...

Sign in to get your own page with links to favourite songs and more. You are just one click away...

Login with Facebook Login with Google