Log in

One click and you are in

Login with Facebook Login with Google

Why sign up and log in

Guitar Tabs Explorer
The Beatles bass tabs for Ive just seen a face

I've Just Seen A Face bass tab by The Beatles

The Beatles bass tabs for Ive just seen a face

Bass tabs

Tuning: Standard (E A D G)

Key: A

Difficulty: Intermediate

Intro:

 1 + 2 + 3 + 4 + 1 + 2 + 3 + 4 + 1 + 2 + 3 + 4 + 1 + 2 + 3 + 4 +

G|--------14--13-|---------------|---------------|---------------|
D|---------------|16------16-----|16------16--14-|12------12-----|
A|---------------|---------------|---------------|---------------|
E|---------------|---------------|---------------|---------------|

 1 + 2 + 3 + 4 + 1 + 2 + 3 + 4 +

G|---------------|---------------|
D|12------12--11-|9-------7---6--|
A|---------------|---------------|
E|---------------|---------------|


Verse 1 & 2:

 1 + 2 + 3 + 4 + 1 + 2 + 3 + 4 + 1 + 2 + 3 + 4 + 1 + 2 + 3 + 4 +

G|---------------|---------------|---------------|---------------|
D|7-------7------|7-------7---6--|4-------4------|4-------4---2--|
A|----7-------7--|----7----------|----4-------4--|----4----------|
E|---------------|---------------|---------------|---------------|

 1 + 2 + 3 + 4 + 1 + 2 + 3 + 4 + 1 + 2 + 3 + 4 + 1 + 2 + 3 + 4 +

G|---------------|---------------|---------------|---------------|
D|---------------|--------7------|7-------7------|7-------7---6--|
A|5-------5------|7-----------7--|----7-------7--|----7----------|
E|----5------5---|----7----------|---------------|---------------|

 1 + 2 + 3 + 4 + 1 + 2 + 3 + 4 + 1 + 2 + 3 + 4 + 1 + 2 + 3 + 4 +

G|---------------|---------------|---------------|---------------|
D|4-------4------|4-------4---2--|---------------|--------7------|
A|----4-------4--|----4----------|5-------5------|7-----------7--|
E|---------------|---------------|----5-------5--|----7----------|


Chorus:

 1 + 2 + 3 + 4 + 1 + 2 + 3 + 4 + 1 + 2 + 3 + 4 + 1 + 2 + 3 + 4 +

G|---------------|---------------|---------------|---------------|
D|---------------|---------------|7--------------|7--------------|
A|7-------7------|5-------5------|----7---5------|----7-------7--|
E|----7-------7--|----5-------5--|------------5--|--------5------|


Verse 3:

 1 + 2 + 3 + 4 + 1 + 2 + 3 + 4 + 1 + 2 + 3 + 4 + 1 + 2 + 3 + 4 +

G|---------------|---------------|---------------|---------------|
D|7-------7------|7-------7---6--|4-------4------|4-------4---2--|
A|----7-------7--|----7----------|----4-------4--|----4----------|
E|---------------|---------------|---------------|---------------|

 1 + 2 + 3 + 4 + 1 + 2 + 3 + 4 + 1 + 2 + 3 + 4 + 1 + 2 + 3 + 4 +

G|---------------|---------------|---------------|---------------|
D|---------------|--------7------|7-------7------|7-------7---6--|
A|5-------5------|7-----------7--|----7-------7--|----7----------|
E|----5------5---|----7----------|---------------|---------------|

 1 + 2 + 3 + 4 + 1 + 2 + 3 + 4 + 1 + 2 + 3 + 4 + 1 + 2 + 3 + 4 +

G|---------------|---------------|---------------|---------------|
D|4-------4------|4-------4---2--|---------------|--------7------|
A|----4-------4--|----4----------|5-------5------|7-----------7--|
E|---------------|---------------|----5-------5--|----7----------|


Chorus 2:

 1 + 2 + 3 + 4 + 1 + 2 + 3 + 4 + 1 + 2 + 3 + 4 + 1 + 2 + 3 + 4 +

G|---------------|---------------|---------------|---------------|
D|---------------|---------------|7--------------|7--------------|
A|7-------7------|5-------5------|----7---5------|----7----------|
E|----7-------7--|----5-------5--|------------5--|--------5---0--|


Solo:

 1 + & + 2 + & + 3 + & + 4 + & + 1 + & + 2 + & + 3 + & + 4 + & +

G|14--14--14--1616----14--14--18--|18--14--14--19--19--18--18--16-|
D|--------------------------------|-------------------------------|
A|0-------------------------------|-------------------------------|
E|--------------------------------|-------------------------------|

 1 + & + 2 + & + 3 + & + 4 + & + 1 + & + 2 + & + 3 + & + 4 + & +

G|14--14--14--1616----14--14--18--|18--14--14--19--19--18--18--16-|
D|--------------------------------|-------------------------------|
A|0-------------------------------|-------------------------------|
E|--------------------------------|-------------------------------|

 1 + & + 2 + & + 3 + & + 4 + & + 1 + & + 2 + & + 3 + & + 4 + & +

G|14--------------16------14------|13------11--13--14-------------|
D|--------------------------------|-------------------------------|
A|0-------------------------------|------------------------12-\---|
E|--------------------------------|-------------------------------|


Chorus 3:

 1 + 2 + 3 + 4 + 1 + 2 + 3 + 4 + 1 + 2 + 3 + 4 + 1 + 2 + 3 + 4 +

G|---------------|---------------|---------------|---------------|
D|---------------|---------------|7--------------|7--------------|
A|7-------7------|5-------5------|----7---5------|----7-------7--|
E|----7-------7--|----5-------5--|------------5--|--------5------|


Verse 4:

 1 + 2 + 3 + 4 + 1 + 2 + 3 + 4 + 1 + 2 + 3 + 4 + 1 + 2 + 3 + 4 +

G|---------------|---------------|---------------|---------------|
D|7-------7------|7-------7---6--|4-------4------|4-------4---2--|
A|----7-------7--|----7----------|----4-------4--|----4----------|
E|---------------|---------------|---------------|---------------|

 1 + 2 + 3 + 4 + 1 + 2 + 3 + 4 + 1 + 2 + 3 + 4 + 1 + 2 + 3 + 4 +

G|---------------|---------------|---------------|---------------|
D|---------------|--------7------|7-------7------|7-------7---6--|
A|5-------5------|7-----------7--|----7-------7--|----7----------|
E|----5------5---|----7----------|---------------|---------------|

 1 + 2 + 3 + 4 + 1 + 2 + 3 + 4 + 1 + 2 + 3 + 4 + 1 + 2 + 3 + 4 +

G|---------------|---------------|---------------|---------------|
D|4-------4------|4-------4---2--|---------------|--------7------|
A|----4-------4--|----4----------|5-------5------|7-----------7--|
E|---------------|---------------|----5-------5--|----7----------|


Chorus 4:

 1 + 2 + 3 + 4 + 1 + 2 + 3 + 4 + 1 + 2 + 3 + 4 + 1 + 2 + 3 + 4 +

G|---------------|---------------|---------------|---------------|
D|---------------|---------------|7--------------|7--------------|
A|7-------7------|5-------5------|----7---5------|----7-------7--|
E|----7-------7--|----5-------5--|------------5--|--------5------|

 1 + 2 + 3 + 4 + 1 + 2 + 3 + 4 + 1 + 2 + 3 + 4 + 1 + 2 + 3 + 4 +

G|---------------|---------------|---------------|---------------|
D|---------------|---------------|7--------------|7--------------|
A|7-------7------|5-------5------|----7---5------|----7----------|
E|----7-------7--|----5-------5--|------------5--|--------5---4--|


Outro:

 1 + 2 + 3 + 4 + 1 + 2 + 3 + 4 + 1 + 2 + 3 + 4 + 1 + 2 + 3 + 4 +

G|---------------|---------------|---------------|---------------|
D|---------------|---------------|7--------------|7--------------|
A|7-------7------|5-------5------|----7---5------|----7-------7--|
E|----7-------7--|----5-------5--|------------5--|--------5------|


 1 + 2 + 3 + 4 + 1 + 2 + 3 + 4 +

G|----------------|---------------|
D|----------------|----7----------|
A|5---4---2---0---|0--------------|
E|--------------4-|---------------|


************************************

 \  Slide down

************************************

Almost there ...

Sign in to get your own page with links to favourite songs and more. You are just one click away...

Login with Facebook Login with Google