Log in

One click and you are in

Login with Facebook Login with Google

Why sign up and log in

Guitar Tabs Explorer
The Beatles bass tabs for It don t come easy

Bass tabs

It Don't Come Easy.btab
Beatles
TablEdited by Jan Bjorklund

Tuning : E A D G 	Time Signature: 4/4


 tempo 120    |    |    |    |    |    |
|7-------------------------------|9---7---------------------------|
|--------------------------------|--------10--7---------------0---|
|--------------------------------|--------------------7-----------|
|--------------------------------|--------------------------------|

 |    |    |    |    |    |    |    |
|--------------0-----------------|--------------------------------|
|------------3/------------------|--------------------------------|
|3-------------------------------|--------------------------------|
|--------------------------------|--------------------------------|

 |    |    |    |    |    |    |    |
|--------------------------------|0/2-----------------------------|
|0-------------------------------|--------------------------------|
|--------------------------------|--------------------------------|
|--------------------------------|--------------------------------|

 |    |    |    |    |    |    |    |
|------------0-------------------|--------------------------------|
|2---0---2-----------------------|0-------------------------------|
|--------------------------------|--------------------------------|
|--------------------------------|--------------------------------|

 |    |    |    |    |    |    |    |
|--------------------------------|2-------------------------------|
|0-------------------------------|--------------------------------|
|--------------------------------|--------------------------------|
|--------------------------------|--------------------------------|

 |    |    |    |    |    |    |    |
|------------0-------------------|--------------------------------|
|2---0---2-----------------------|0-----------0-------------------|
|--------------------------------|--------------------------------|
|--------------------------------|--------------------------------|

 |    |    |    |    |    |    |    |
|--------------------------------|--------------------------------|
|--------------------------------|0---------------0---0-------2---|
|--------------------------------|------------0-------------------|
|--------------------------------|--------------------------------|

 |    |    |    |    |    |    |    |
|--------------------------------|--------------------------------|
|--------------------------------|--------5-----------------------|
|0-----------0---0---0-------1---|3-----------3---3-----------3---|
|------------------------0-------|--------------------------------|

 |    |    |    |    |    |    |    |
|--------------------------------|--------------------------------|
|0-----------0---0---------------|0-----------0---0-----------1---|
|----------------------------0---|--------------------------------|
|--------------------------------|--------------------------------|

 |    |    |    |    |    |    |    |
|--------------------------------|--------------------------------|
|--------------------------------|--------5-----------------------|
|0-----------0---0-----------2---|3-----------3---3-----------4---|
|--------------------------------|--------------------------------|

 |    |    |    |    |    |    |    |
|--------------------------------|--------------------------------|
|0---------------0-------0-0-2---|3-----------3---3-------3-------|
|------------0-------4-----------|--------------------3-------3---|
|--------------------------------|--------------------------------|

 |    |    |    |    |    |    |    |
|--------------------------------|0-----------------------0---0---|
|3-----------3---3-------3-------|--------------------0-----0---0-|
|--------------------3-------3---|--------------------------------|
|--------------------------------|--------------------------------|

 |    |    |    |    |    |    |    |
|0-----------------------0---0---|--------------------------------|
|--------------------0-----0---0-|3-------------------3---3---3---|
|--------------------------------|--------------------------3---3-|
|--------------------------------|--------------------------------|

 |    |    |    |    |    |    |    |
|--------------------------------|--------------------------------|
|3-------------------3---3---3---|--------------------------------|
|--------------------------3---3-|0---0---0---2---2---2---2---4---|
|--------------------------------|--------------------------------|

 |    |    |    |    |    |    |    |
|--------------------------------|--------------------------------|
|----------------2---0-------2---|0-----------0---0-----------0---|
|0---0-------0-----------4-------|--------------------------------|
|--------------------------------|--------------------------------|

 |    |    |    |    |    |    |    |
|--------------------------------|--------------------------------|
|--------------------------------|--------------------------------|
|0-----------0---0---0-------2---|3-----------3---3---3-------3---|
|--------------------------------|--------------------------------|

Almost there ...

Sign in to get your own page with links to favourite songs and more. You are just one click away...

Login with Facebook Login with Google